www.paul-simon.info 
The neck of my Guitar
  Tabulatures for "Everything Put Together Falls Apart"

Standard tuning.
4/4 mostly. 

   , . , . , . , .   , . , . , . , .   , . , . , . , .   , . , . , . ,  .
||-1-------0-------|-----------------|---------3-------|-3-----------------|
||-1-------3-------|-----------------|-4-------4-------|-3-----------4h5---|
||-1-------0-------|-----------------|-2-------3-------|-3-----------4h6/7-|
||-1-------2-------|-----------------|-3-----3---------|-3---------4----/6-|
||-------3---------|-----------------|-----------------|-------------------|
||-1---------------|---------------1-|---------------6-|-------------------|
      Mmm  mmm      Paraphenalia    never hides your broken bones And I dunno

  , . , . , . , .   , . , . , . , .6/4 , . , . , . , . , . , .
|---------------4-|-----2-------0---|-/4-------0---0---0-------|
|---------------5-|-------0-----0---|-/3---0---2---1---0---2---|
|-8---7---6-----4-|-----2-1-----1---|-/4-------2---2---0---2---|
|-7---6---5-------|-----------2-----|----------------------2---|
|-----------------|-----------------|--------0-----------------|
|-7---6---5---0---|-------0-------0-|------------------3---2---|
  why         you'd want to try       Mmm  It's plain to see you're on your

4/4 . , . , . , .    , . , . , . , .     ,  .  ,  . , . , . 
|---------0---0---||-5---5---0--------|-------H12---0---0---|
|-0---2---3---3---||-6---6---0--------|----H12------1---0---|
|-1---2---1---1---||-5---5---0--------|-H12---------0---0---|
|-2---2---2-------||--------------H12-|---------------------|
|--------------/5-||-----5------------|-------------0-------|
|-0-0---0---------||---------8--------|-----------------3---|
  own                    Ooooh...           I ain't blind no 

  , . , . , . , .   , . , . , . , .   ,  .  ,  .  ,  .  ,  . 
|-----------------|-5-------1-------|-0-----------------------||
|-3-------3-------|-6-------0-------|-3-----------------------||
|-2-------2-------|-5-------0-------|-3-----------------------||
|-0-------0-------|---------0-------|-2-----------------------||
|--------------/5-|-----------------|-3-----------------------||
|-2-------1-------|---------3-------|-------------------------||
 Some folks are crazy, others walk that borderline Watch what you're doing

   , . , . , . , .   , . , . ,  .  , .   , . , . , . , .   , . , . , . ,  .
||-----1---1---1---|-0---0-------0-----|---------3---3---|-------------------|
||-----1---1---1---|-3---3-----3-------|-4---4---4---4---|-3---3---3---4h5---|
||-----1---1---1---|-0---0---0---------|-2---2---3---3---|-3---3---3---4h6/7-|
||-----1---1---1---|-2-----------------|-3---3-3---3-----|-3---3---3-4----/6-|
||---------------3-|-------3-------3---|-----------------|-------------------|
||---1---1---1-----|-----------------1-|---1-----------6-|---5---3-----------|
   Taking downs to get off to sleep  And ups to start you on your way  After a

  , . , . , . , .   , . , . , . , .6/4 , . , . , . , . , . , .
|---------------4-|-----2-------0---|-/4-------0---0---0-------|
|---------------5-|-------0-----0---|-/3---0---2---1---0---2---|
|-8---7---6-----4-|-----2-1-----1---|-/4-------2---2---0---2---|
|-7---6---5-------|-----------2-----|----------------------2---|
|-----------------|-----------------|--------0-----------------|
|-7---6---5---0---|-------0-------0-|------------------3---2---|
 while     they'll change your style  Ooooh... I see it happen every


4/4 . , . , . , .    , . , . , . , .     ,  .  ,  . , . , . 
|---------0---0---||-5---5---0--------|-------H12---0---0---|
|-0---2---3---3---||-6---6---0--------|----H12------1---0---|
|-1---2---1---1---||-5---5---0--------|-H12---------0---0---|
|-2---2---2-------||--------------H12-|---------------------|
|--------------/5-||-----5------------|-------------0-------|
|-0-0---0---------||---------8--------|-----------------3---|
  day                    Ooooh...           spare your heart 

  , . , . , . , .   , . , . , . , .   ,  .  ,  .  ,  .  ,  . 
|-----------------|-5-------1-------|-0-----------------------||
|-3-------3-------|-6-------0-------|-3-----------------------||
|-2-------2-------|-5-------0-------|-3-----------------------||
|-0-------0-------|---------0-------|-2-----------------------||
|--------------/5-|-----------------|-3-----------------------||
|-2-------1-------|---------3-------|-------------------------||
 Everything put together sooner or later falls apart  There's nothing
                                      to it, nothing to it  You can

   , . , . , . , .   , . , . ,  .  , .   , . , . , . , .   , . , . , . ,  .
||-----1---1---1---|-0---0-------0-----|---------3---3---|-------------------|
||-----1---1---1---|-3---3-----3-------|-4---4---4---4---|-3---3---3---4h5---|
||-----1---1---1---|-0---0---0---------|-2---2---3---3---|-3---3---3---4h6/7-|
||-----1---1---1---|-2-----------------|-3---3-3---3-----|-3---3---3-4----/6-|
||---------------3-|-------3-------3---|-----------------|-------------------|
||---1---1---1-----|-----------------1-|---1-----------6-|---5---3-----------|
   cry  Or you can lie  For all the good it'll do ya you can die  But when 
it's

  , . , . , . , .   , . , . , . , .6/4 , . , . , . , . , . , .
|---------------4-|-----2-------0---|-/4-------0---0---0-------|
|---------------5-|-------0-----0---|-/3---0---2---1---0---2---|
|-8---7---6-----4-|-----2-1-----1---|-/4-------2---2---0---2---|
|-7---6---5-------|-----------2-----|----------------------2---|
|-----------------|-----------------|--------------------------|
|-7---6---5---0---|-------0-------0-|--------0---------3---2---|
done and the police come and they lay you down for dead  Oh just remember what 


3/4  .  ,  .  ,  . 4/4, . , . , . , .3/4,  .  ,  .  ,  .  
|---------4---------|-0---0-0---------|---------4-------0-|
|-------------3-----|-2---1-0-----2---|-------------3-----|
|-----2/4---4-------|-2-----0-----2---|-1---2/4---4---4---|
|-------------------|-------------2---|-2-----------------|
|-------------------|-0---0-----------|-------------------|
|-0-----------------|-------3-----2-0-|-------------------|
 I said


4/4 . , . , . , .   ad lib
|-0---0-0---------|--------------0------||
|-2---1-0-----2---|------------3---3----||
|-2---0-0-----2---|----------1-------1--|| Fine.
|-------------2---|--------2------------||
|-0---0-----------|------2--------------||
|-------3-----2-0-|----0----------------||

Other chords and tabulatures on paul-simon.info

Lyrics :everything about it is a love song
Google Advertisement
Chords :everything put together falls apart