www.paul-simon.info 
The neck of my Guitar
  Tabulatures for "Congratulations"

by Paul Simon on Paul Simon 1972

 
   A/E           E             Em/D#         E
3/4, . , . , .   , . , . , .   , . , . , .   , . , . , . 
||-0---0---0---|-0-------0---|---------0---|-----0-0-0---| 
||-2---2---2---|-0-------0---|--------5----|-----0-0-0---| 
||-2---2---2---|-1-------1---|-----4-------|-----1-1-1---| 
||-------------|-2-----------|----5--------|-----2-2-2---| 
||-------------|-2-----------|-6-----------|-------------| 
||-0---0---0---|-0-------0---|-------------|-0-----------| 
   Con.gratulations                                  ohhh

          E7    F#m7          D#m7-5        D6
  , . , . , .   , . , . , .   , . , . , .   , . , . , . 
|-----0---0-0-|---------2---|--------2----|--------2----| 
|-----0---0-0-|--------2---2|-----2---2---|-----3---3---| 
|-----1---1-1-|-----2-------|----2-------2|----4-------4| 
|-----2---0-0-|----2--------|-1-----------|-0-----------| 
|-------------|-------------|-------------|-------------| 
|-0-----------|-2-----------|-------------|-------------| 
  seems like you done it again

      Dmaj9     A             A7/G          D/F#
  , . , . , .   , . , . , .   , . , . , .    , . , . , . 
|-2---0---2---|-----0---0---|-3---3--------|-----2---2---| 
|-3---3---3---|-2---2---2---|-2---2--------|-----3---3---| 
|-4---2---2---|-2---2---2---|-0---0--------|-----2---2---| 
|-0-----------|-2-----------|--------------|-------------| 
|-----4---2---|-0-----------|--------------|-------------| 
|-------------|------------0|-3-------0h3-0|-2-----------| 
  and I aint....misery


  F#+           G             B7             E
  , . , . , .   , . , . , .   , . , . , .    , . , . , . 
|-------------|-----3-3-3---|-----2-2------|---------0---| 
|-3---3---3---|-----0-0-0---|-----4-4------|---------0---| 
|-3---3---3---|-----0-0-0---|---2-2-2------|---------1---| 
|-4---4---4---|----0--------|--------------|---------2---| 
|-------------|-------------|-2------------|-------------| 
|-2-----------|-3-----------|---------2b3--|-0----------0| 
  I don't know  when                            oh, and


     
  , . , . , .   , . , . , .   , . , . , .    , . , . , . 
|--4---4---4--|-------5-----|--------10----|-0---0---0---| 
|----3---3---3|-------------|--------------|-0---0---0---| 
|-------------|---/6--------|-----11----11|-1---1---1---| 
|-------------|-------------|-0------------|-2---2---2---| 
|-------------|-0-----------|--------------|-------------| 
|-0---2---4---|-------------|--------------|-0-----------| 
      don't know when

                A             D              E
  , . , . , .   , . , . , .   , . , . , .    , . , . , . 
|-------------|-------5-----|----10-10-10--|-0---0---0---| 
|-------------|-------------|--------------|-0---0---0---| 
|--1---1---1--|---/6--------|--11-11-11-11|-1---1---1---| 
|----2---2---2|-------------|-0------------|-2---2---2---| 
|-------------|-0-----------|--------------|-------------| 
|-0---2---4---|-------------|--------------|-0-----------| 
    Oh and I don't know when                       I notice


  A       Fm7   E                            E7/G#
  , . , . , .   , . , . , .   , . , . , .    , . , . , . 
|-5---4---2---|-----0---0---|-----0---0-0--|-0-0-0---0---| 
|-5---5---2---|-----0---0---|-----0---0-2--|-3-3-3---3---| 
|-6---6---2---|-----1---1---|-----1---1-1--|-4-4-4---4---| 
|-------------|-----2---2---|-----2--------|-0-0-0-------| 
|-0-----------|-------------|--------------|-------------| 
|-----4---2---|-0-----------|-0-------0-2--|-4-4-4-------| 
  so  man y     people

                F#m7          D#m7-5        D6
  , . , . , .   , . , . , .   , . , . , .   , . , . , . 
|-0---0---0---|---------2---|--------2----|--------2----| 
|-3---3---3---|--------2---2|-----2---2---|-----3---3---| 
|-4---4---4---|-----2-------|----2-------2|----4-------4| 
|-------------|----2--------|-1-----------|-0-----------| 
|-------------|-------------|-------------|-------------| 
|-4-0-4---0---|-2-----------|-------------|-------------|
  slippin' away

      Dmaj9     A             A7/G          D/F#
  , . , . , .   , . , . , .   , . , . , .    , . , . , . 
|-2---0---2---|-----0---0---|-3---3--------|-----2---2---| 
|-3---3---3---|-2---2---2---|-2---2--------|-----3---3---| 
|-4---2---2---|-2---2---2---|-0---0--------|-----2---2---| 
|-0-----------|-2-----------|--------------|-------------| 
|-----4---2---|-0-----------|--------------|-------------| 
|-------------|-------------|-3-------0h3-0|-2-----------| 
 and many more..waiting in the line

  F#+           G             B7             E
  , . , . , .   , . , . , .   , . , . , .    , . , . , . 
|-------------|-----3-3-3---|-----2-2------|---------0---| 
|-3---3---3---|-----0-0-0---|-----4-4------|---------0---| 
|-3---3---3---|-----0-0-0---|---2-2-2------|---------1---| 
|-4---4---4---|----0--------|--------------|---------2---| 
|-------------|-------------|-2------------|-------------| 
|-2-----------|-3-----------|---------2b3--|-0----------0| 
  In the courtrooms today                            oh

                A             D
  , . , . , .   , . , . , .   , . , . , .    , . , . , . 
|--4---4---4--|-----5-------|---10-10-10---|-------5-----| 
|----3---3---3|-------------|--------------|-------------| 
|-------------|---/6--------|--11-11-11-11|----/6---2-1-| 
|-------------|-------------|-0------------|-------------| 
|-------------|-0-----------|--------------|-0------0----| 
|-0---2---4---|-------------|--------------|-------------| 
  in the courtrooms today

                B7                           E
  , . , . , .   , . , . , .   , . , . , .    , . , . , . 
|-------------|-2---2---2---|-2---2---2----|-0---0---0---| 
|-------------|-0---0---0---|-0---0---0----|-0---0---0---| 
|-0-----------|-2---2---2---|-2---2---2----|-1---1---1---| 
|-------------|---1---1---1-|---1---1---1--|-------------| 
|-------------|-2---2---2---|-2---2---2----|-------------| 
|-------------|-------------|--------------|-0---2---4---| 
                Love is not a game....       Love's no romance

  A                           A7             release bend
  , . , . , .   , . , . , .   , . , . , .    , . , . , . 
|-5-----------|-5-----------|-3------------|-------------| 
|-2-----------|-2-----------|-2------------|-3r2---------| 
|-2-(strum)---|-2--(strum)--|-2------------|-------------| 
|-2-----------|-2-----------|-2------------|-------------| 
|-0-----------|-0-----------|-0------------|-------------| 
|-------------|-------------|--------------|-------------| 

Other chords and tabulatures on paul-simon.info

Chords :congratulations
Google Advertisement
Lyrics :congratulations