www.paul-simon.info 
The neck of my Guitar
  Tabulatures for "Can't Help But Wonder Where I'm Bound"

Capo 5th fret

     G                                   C        Cmaj7    Am
e:|-----------------|-----------------|-----------------|-----------------|
B:|--0---------1----|--3---------0----|--1---------0----|------------0----|
G:|--0----0---------|-------0---------|-------0---------|-------2---------|
D:|-----0--------2--|-----0--------0--|-----2--------2--|-----2--------2--|
A:|-----------------|-----------------|--3-------3------|--0-------0------|
E:|--3-------3------|--3-------3------|-----------------|-----------------|

     Am                D                 D                 G       C/G
e:|-----------------|--2---------3----|--2---0----------|-----------------|
B:|--0h1-------1----|-------3---------|----------3---1--|--0---------1----|
G:|--------2--------|-----2--------2--|-----------------|-------0---------|
D:|------2-------0--|--0-------0------|--0---0---0---0--|-----0--------2--|
A:|--0--------0-----|-----------------|-----------------|-----------------|
E:|-----------------|-----------------|-----------------|--3-------3------|

     G              *   G     C/G        G       C/G       C       Cmaj7
e:|-----3------3----||--3-------------|-----------------|-----------------|
B:|-----0-----------||--0-------1-----|--0---------1----|--1---------0----|
G:|-----0-----------||--0-------------|-------0---------|-------0---------|
D:|-----0-----------||-----0------2---|-----0--------2--|-----2--------2--|
A:|-----------------||----------------|-----------------|--3-------3------|
E:|--3------3-------||--3-----3-------|--3-------3------|-----------------|

             It's a    hot and dusty    road         a    hard and a heavy
                       bad   some are   good   some have done the best they

     Am                                  D                 D
e:|-----------------|-----------------|--2---------3----|--2---0----------|
B:|------------0----|--0h1--------1---|-------3---------|----------3---1--|
G:|-------2---------|--------2--------|-----2--------2--|-----------------|
D:|-----2--------2--|------2--------2-|--0-------0------|--0---0---0---0--|
A:|--0-------0------|--0--------0-----|-----------------|-----------------|
E:|-----------------|-----------------|-----------------|-----------------|

    load                       and the  people that I     meet ain't always
    could                     some have tried        to   ease my troublin'

     G              %
e:|-----------------|-----------------||
B:|--0---------1----|--0---------1----||
G:|-------0---------|-------0---------||
D:|-----0--------2--|-----0--------2--||
A:|-----------------|-----------------||
E:|--3-------3------|--3-------3------||

    kind   -    -     -    -  some are   (repeat from *)
    mind

% Refrain:

     G                 C                 D       C        G       D/F#
e:|-----3-----------|-----------------|-----------------|---3-------2-----|
B:|-----0-----------|-----------1-----|----3-------1----|-----------------|
G:|-----0-----0-----|-------0---------|-----------------|-------0-------0-|
D:|-----0-------0---|-----2-------2h4-|------4-------2--|-----0-------0---|
A:|-----------------|--3------3-------|--5-------3------|-----------------|
E:|--3-----3--------|-----------------|-----------------|-3-------2-------|

              And I   can't  help but   wonder where I'm  bound  where I'm

     Em                C                 D       C         G
e:|-----------------|-----------------|--2--------------|-----------------|
B:|-----0-----0-----|--1---------1----|-------0----1----|-----0-----1-----|
G:|-----------------|-------0---------|-----2-----------|-----------------|
D:|--2--2---2---0---|-----2--------2--|--0-----------2--|-----0-------2---|
A:|-----------------|--3-------3------|----------3------|-----------------|
E:|-----------------|-----------------|-----------------|--3------3-------|

    bound                Can't help but wonder where I'm bound

     G       C/G       G       C/G       G       C/G       Ending:   G
e:|-----------------|-----------------|-----------------||-----------3----|
B:|--0---------1----|--0---------1----|--0---------1----||-----------0----|
G:|-------0---------|-------0---------|-------0---------||-----------0----|
D:|-----0--------2--|-----0--------2--|-----0--------2--||-----------0----|
A:|-----------------|-----------------|-----------------||-----------2----|
E:|--3-------3------|--3-------3------|--3-------3------||-----------3----|

                                      (next verse from *)

Lyrics:

It's a hot and dusty road,
A hard and a heavy load,
And the people that I meet ain't always kind.
Some are bad, some are good,
Some have done the best they could,
Some have tried to ease my troublin' mind.

And I can't help but wonder where I'm bound,
Where I'm bound.
Can't help but wonder where I'm bound.

I have travelled this whole land.
I have done the best I can.
Tryin' to find what I was meant to do.
And the faces that I see,
Look as worried as can be.
And it seems like they are wonderin' too.

(refrain)

I had a little girl one time,
She had lips like cherry wine.
And she loved me 'til my mind went plum insane.
But I was too blind to see,
She was driftin' away from me.
And she left one day on the morning train.

(refrain)

I had a buddy way back home,
But he started out to roam.
And I believe he's down by 'Frisco bay.
And sometimes when I've had a few,
His voice comes ringin' through.
And I'm going back to see him some ole day.

(refrain)

Hey if you see me passin' by,
And you stop and wonder why,
And you think you'd like to be a rambler too.
Nail your shoes to the kitchen floor,
Take the key and lock the door.
Thank the stars for the roof that's over you.

(refrain)

Other chords and tabulatures on paul-simon.info

Chords :can t run but
Google Advertisement