www.paul-simon.info 
The neck of my Guitar
  Tabulatures for "Can I Forgive Him"

Tuning - all strings a whole tone down
1-D,2-A,3-F,4-C,5-G,6-D

[Intro]
|----------------|----------------||
|------1-----1---|----1-------1---||
|----0-----0---0-|--0---0---0---0-||
|--2-----2-------|--------2-------||
|3---------------|3---------------||
|----------------|----------------||

3/4           4/4 
||------------||----------------|----------------|----------------||
||--------1---||----3-------3---|----0-------0---|----0-------0---||
||------0---0-||--2---2---2---2-|--0---0---0---0-|--0---0---0---0-||
||--0-2-------||0-------0-------|2-------1-------|0---------------||
||3-----------||----------------|----------------|--------4-------||
||------------||----------------|----------------|----------------||

3/4           4/4
||------------||----------------|----------------|----------------|
||------2-----||----4-------4---|----5-----5-----|----6-------6---|
||----2-----2-||--4---4---4---4-|--4-----4-----4-|--6---6---6---6-|
||--2-----2---||2-------1-------|------6---------|--------6-------|
||3-----------||----------------|4-----------4---|5---------------|
||------------||----------------|----------------|----------------|

|----------------|---------------------|----------------|
|----5-----5-----|4-----------------5--|------5-----5---|
|--6-----6-----6-|--6-------------4----|----4-----4-----|
|------6-----6---|----6---------4------|--4-----4-------|
|----------------|------------4--------|4-------------4-|
|5---------------|--------4------------|----------------|

|------2---------|------- ---------|----4-------4---|3-----3---------||
|----2-------2---|----2-- ---------|----5-------5---|--0-----0---0---||
|--3-------3---3-|2-2---- -------2-|----4-----4---4-|--------------0-||
|----------------|4-4---- -----2---|----------------|----2-----2-----||
|----------------|------- -2-4-----|----------------|----------------||
|2-------2-------|2-2---2h4--------|0-------0-------|----------------||

|----------------|----------------|----------------|
|------1-------0-|----0-------0---|----0-------0---|
|----0-------2---|--0---0---0---0-|--0---0---0---0-|
|--2-------1-----|2-------1-------|0---------------|
|3-------2-------|----------------|--------4-------|
|----------------|----------------|----------------|

3/4           4/4
||------------||----------------|----------------|----------------|
||----2-------||----4-------4---|----5-----5-----|----6-------6---|
||--2---2---2-||--4---4---4---4-|--4-----4-----4-|--6---6---6---6-|
||--------2---||2-------1-------|------6---------|--------6-------|
||3-----------||----------------|4-----------4---|5---------------|
||------------||----------------|----------------|----------------|

|----------------|---------------------|----------------|
|----5-----5-----|4-----------------5--|----5-----5-----|
|--6-----6---6---|--6-------------4----|--4-----4-----4-|
|------6-------6-|----6---------4------|------4-----4---|
|----------------|------------4--------|4---------------|
|5---------------|--------4------------|----------------|

|------2---------|------- ---------|----4-------4---|3-----3-----3---|
|----2-------2---|----2-- -------2-|----5-------5---|--0-----0-----0-|
|--3-------3---3-|2-2---- ---------|----4-----4---4-|----------------|
|----------------|4-4---- -----2---|----------------|----2-----2-----|
|----------------|------- -2-4-----|----------------|----------------|
|2-------2-------|2-2---2h4--------|0-------0-------|----------------|

|----------------|----------------|----------------|
|------1-------0-|----0-------0---|----0-------0---|
|----0-------2---|--0---0---0---0-|--0---0---0---0-|
|--2-------1-----|2-------1-------|0---------------|
|3-------2-------|----------------|--------4-------|
|----------------|----------------|----------------|


|----------------|----------------|----------------||
|------1-----3---|----0-----0-----|----------------||
|----0-----2---2-|--0-----0-----0-|--------%-------||
|--2-----0-------|------0-----0---|----------------||
|3---------------|----------------|----------------||
|----------------|3---------------|----------------||

[Interlude]
|----------------|----------------|----------------|----------------||
|------3-------3-|----3-----3-----|------5---------|--5-----5-----5-||
|----3---3---3---|--3-----3-----3-|----6-----6-----|6-----6-----6---||
|--5-------3-----|3-----3-----5---|--5-----5-------|----5-----------||
|----------------|----------------|------------7-7-|----------------||
|3---------------|----------------|6---------------|----------6-----||

                               7/8             4/4
|----------------|--------------|--------------||----------------|----------------|
|----5-----5-----|--------------|------6-----6-||----6-----6-----|----4-----4-----|
|--6-----6-----6-|--------%-----|----5-----5---||--5-----5-----5-|--5-----5-----5-|
|------5-----5---|--------------|--4-----4-----||4-----4-----4---|4-----4-----4---|
|----------------|--------------|5-------------||----------------|----------------|
|6---------------|--------------|--------------||----------------|----------------|

|----------------|----------------|----------------|----------------|
|----3-----3-----|----3-----3-----|----5-----5-----|----5-----5-----|
|--3-----3-----3-|--3-----3-------|--6-----6-----6-|--6-----6-------|
|------5---------|------3---------|------5-----5---|------5---------|
|----------------|----------------|----------------|----------------|
|3-----------3---|3-----------3-/-|6---------------|6-----------6-/-|

9/8                 4/4
||------------------||----------------|----------------|----------------|
||----8-----8-----8-||----8-----8-----|----9-----9-----|----7-----7-----|
||--9-----9-----9---||--9-----9-----9-|--8-----8-----8-|--8-----8-----8-|
||------8-----8-----||------8-----8---|------7-----7---|------7-----7---|
||------------------||----------------|8---------------|8---------------|
||9-----------------||9---------------|----------------|----------------|

|----------------|----------------|----------------|----------------|
|----6-----6-----|------5---------|------6-----6---|----6-----6-----|
|--6-----6-----6-|----6---6---6---|----7-----7-----|--7-----7-----7-|
|------6-----6---|--5-------5-----|--7-----7-----7-|------7-----7---|
|----------------|----------------|5---------------|5---------------|
|6---------------|6---------------|----------------|----------------|

|----------------|------1---------|----------------||
|----4-----4-----|----1-----------|2---------------||
|--5-----5-----5-|--2-------------|----------------||
|------5-----5---|----------------|----------------||
|3---------------|----------------|----------------||
|----------------|1---------------|----------------||

              5/4             4/4V
||1-----------||---------------||6---53------|------------|
||---1--------||-----6---6---6-||3-----6-4-3-|---4-4---4--|
||------3-----||--0-0---0---0--||3---53-4----|--3-3---3-3-|
||---------0--||-6--6--6---6---||5-----------|-3-----3---3|
||------------||---------------||------------|3-----3-----|
||------------||6--6--6---6---3||------------|------------|

|------------| ------------| ------------|------------|
|--4--4--1--1| --4--4--1--1| --4--4--1--4|--3--3--3--3|
|-3--3--2--2-| -3--3--2--2-| -3--3--2--3-|-0--0--0--0-|
|5--5--3--3--|/5--5--3--3--|/5--5--3--1--|------------|
|------------| ------------| ------------|1--1--1--1--|
|------------| ------------| ------------|------------|
                                                       3/4
| ------------| ------------|------------| ------------||---------||
| --4--4--1--1| --4--4--1--4|--3--3--3--3| --4--4--1--4||--3--3--3||
| -3--3--2--2-| -3--3--2--3-|-0--0--0--0-| -3--3--2--3-||-0--0--0-||
|/5--5--3--3--|/5--5--3--1--|------------|/5--5--3--1--||---------||
| ------------| ------------|1--1--1--1--| ------------||1--1--1--||
| ------------| ------------|------------| ------------||---------||







4/4           5/4              4/4
||1-----------||---------------||--6-53------|------------|
||---1-------1||----6---6---6--||--3---6--4--|---4----4--4|
||------3---3-||--0-0--0---0---||--3-53-4----|--3--4-3--3-|
||---------0--||-6--6-6---6----||-5----------|-3--3----3--|
||------------||---------------||------------|3-----3-----|
||------------||6--6-6---6---6-||3-----------|------------|

|------------| ------------| ------------|------------|
|--4--4--1--1| --4--4--1--1| --4--4--1--4|--3--3--3--3|
|-3--3--2--2-| -3--3--2--2-| -3--3--2--3-|-0--0--0--0-|
|5--5--3--3--|/5--5--3--3--|/5--5--3--1--|------------|
|------------| ------------| ------------|1--1--1--1--|
|------------| ------------| ------------|------------|

| ------------|------------|------------||
| --4--4--1--4|--3--3--3--3|------------||
| -3--3--2--3-|-0--0--0--0-|-----%2-----||
|/5--5--3--1--|------------|------------||
| ------------|1--1--1--1--|------------||
| ------------|------------|------------||


|------------|---------- --|------------|---------- --|
|--3--3--1--1|--0--0--0- 0-|--1--1--1--1|--0--0--0- 0-|
|-2--2--2--2-|-1--1--1-- --|-2--2--2--2-|-1--1--1-- --|
|---2--2--2--|---2------ --|---2-----2--|---2------ --|
|0-----------|---------- -2|0-----0-----|---------- -2|
|------------|0-----0--3c4-|------------|0-----0--3c4-|

|------------|------------|------------|------------||
|--1--1--1--1|--1--1---1--|---1----1--1|--1--12-----||
|-2--2--2--2-|-2--2---2--2|--0-0--3--3-|-2--2-------||
|---2-----2--|---3---3--3-|-2---2---2--|---3--------||
|0-----0-----|3-----3-----|3-----3-----|------------||
|------------|------------|------------|1-----------||

             5/4              4/4
|1-----------||---------------||--6-53------|------------|
|---1--------||----6---6---6--||--3---6--4--|---4----4--4|
|------3-----||--0-0--0---0---||----53-4----|--3--4-3--3-|
|---------0--||-6--6-6---6----||-5----------|-3--3----3--|
|------------||---------------||------------|3-----3-----|
|------------||6--6-6---6-----||3-----------|------------|

|------------| ------------| ------------|------------|
|--4--4--1--1| --4--4--1--1| --4--4--1--4|--3--3--3--3|
|-3--3--2--2-| -3--3--2--2-| -3--3--2--3-|-0--0--0--0-|
|5--5--3--3--|/5--5--3--3--|/5--5--3--1--|------------|
|------------| ------------| ------------|1--1--1--1--|
|------------| ------------| ------------|------------|

| ------------| ------------|------------|------------|------------|
| --4--4--1--1| --4--4--1--4|--3--3--3--3|------------|------------|
| -3--3--2--2-| -3--3--2--3-|-0--0--0--0-|-----%3-----|-----%3-----|
|/5--5--3--3--|/5--5--3--1--|------------|------------|------------|
| ------------| ------------|1--1--1--1--|------------|------------|
| ------------| ------------|------------|------------|------------|

| ------------|------------||
| --4--4--1--4|--3--3--3--3||
| -3--3--2--3-|-0--0--0--0-||
|/5--5--3--1--|------------||
| ------------|1--1--1--1--||
| ------------|------------||
                             Fade Out

Other chords and tabulatures on paul-simon.info

Lyrics :can i forgive him
Google Advertisement