www.paul-simon.info 
The neck of my Guitar
  Tabulatures for "The Coast"

CAPO III

1                             2
E:-1^0------------------------|----------------------------|
B:-----3-1--0-------0----1-1--|-1^0-------------0---0--1-3-|
G:---------------2-------0-0--|-----2-0--0----2------------|
D:-----------------------2-2--|----------------------------|
A:----------------------------|----------------------------|
E:----------------------------|----------------------------|



3                             4
E:-1^0------------------------|----------------------------|
B:-----3-1--0-------0----1-1--|-1^0-------------0----------|
G:---------------2-------0-0--|-----2-0--0----2-----0------|
D:-----------------------2-2--|----------------------------|
A:----------------------------|----------------------------|
E:----------------------------|----------------------------|



5                             6
E:-1^0------------------------|----------------------------|
B:-----3-1--0-------0----1-1--|-1^0-------------0---0--1-3-|
G:---------------2-------0-0--|-----2-0--0----2------------|
D:-----------------------2-2--|----------------------------|
A:----------------------------|----------------------------|
E:----------------------------|----------------------------|
   A   family   of  musicians   took shelter  for the night


7                             8
E:-1^0------------------------|----------------------------|
B:-----3-1--0-------0----1-1--|-1^0-------------0----------|
G:---------------2-------0-0--|-----2-0--0----2-----0------|
D:-----------------------2-2--|----------------------------|
A:----------------------------|----------------------------|
E:----------------------------|----------------------------|
   in  a little  harbor church  of  St Cecilia


9                             10
E:-1^0------------------------|----------------------------|
B:-----3-1--0-------0----1-1--|-1^0-------------0---0--1-3-|
G:---------------2-------0-0--|-----2-0--0----2------------|
D:-----------------------2-2--|----------------------------|
A:----------------------------|----------------------------|
E:----------------------------|----------------------------|
   Two gui- tars,    bata       bass  drum   and tambourine


11                            12
E:-1^0------------------------|----------------------------|
B:-----3-1--0-------0----1-1--|-1^0-------------0----------|
G:---------------2-------0-0--|-----2-0--0----2-----0------|
D:-----------------------2-2--|----------------------------|
A:----------------------------|----------------------------|
E:----------------------------|----------------------------|
   Rose of  Jericho     and    Bougainvillea


13                            14
E:----------------------------|----------------------------|
B:---3--3--3---3---1---0------|---3--3--3---3---1---0------|
G:-2/4--4--4---4---2---0------|-2/4--4--4---4---2---0------|
D:----------------------------|----------------------------|
A:----------------------------|----------------------------|
E:----------------------------|----------------------------|
   This is a   lonely  life


15                            16
E:----------------------------|--1------0------------------|
B:---3--3--3---3---1---0-1-3--|----------------3-----1---0-|
G:-2/4--4--4---4---2---0-2-4--|----------------------------|
D:----------------------------|----------------------------|
A:----------------------------|----------------------------|
E:----------------------------|----------------------------|
                                 sor-  rows    every-where


17                            18
E:----------------------------|-------------------------0--|
B:------0------1--------------|--------------------1-------|
G:--2---------0---------------|---------------0------------|
D:-----------2----------------|----------2-----------------|
A:----------3-----------------|-----3----------------------|
E:---------3------------------|----------------------------|
    you turn....


19                            20
E:-----------------1-0---0----|-----------------1-0--------|
B:-----------------3-1-----1--|-----------------3-1--------|
G:--4-----3---0---------------|--4-----3---0---------------|
D:--4-----3---0---------------|--4-----3---0---------------|
A:----------------------------|----------------------------|
E:----------------------------|----------------------------|
   and that's worth something   that's worth some money
  (When you think about it)


21                            22
E:-----------------1-0---0----|----------------------------|
B:-----------------3-1-----1--|----------------------------|
G:--4-----3---0---------------|--4----3-0----0-------------|
D:--4-----3---0---------------|--4----3-0----0-------------|
A:----------------------------|----------------------------|
E:----------------------------|----------------------------|
   and that's worth something   that's worth some money
  (When you think about it)


Repeat measures 5 to 22, then:


23                            24
E:----------------------------|----------------------------|
B:-------0-0------------3-----|-------0-0------------------|
G:-------0-0-------0----2-----|-------0-0-------0----------|
D:-------0-0-------2----0-----|-------0-0-------2----0-----|
A:-----------------3----------|-----------------3----0-----|
E:--3---------3---------------|--3---------3---------------|



25                            26
E:----------------------------|----------------------------|
B:-------0-0------------3-----|---3----1----0--------------|
G:-------0-0-------0----2-----|---2----0----0--------------|
D:-------0-0-------2----0-----|---0----2----0--------------|
A:-----------------3----------|----------------------------|
E:--3---------3-------------3-|---------------------(3)----|

Repeat four times measures 23 to 26

After the percussive interlude, repeat from the beginning etc.

Other chords and tabulatures on paul-simon.info

Lyrics :ten years
Google Advertisement