www.paul-simon.info 
The neck of my Guitar
  Tabulatures for "Homeless (demo)"

Music and words by Paul Simon
Transcribed by Michiel Evers (michiel5evers@hotmail.com)

Capo 3 (with 1/4 tuned up)

|---2-----|---2---2-|---0-----|---3-----|-----2---|---2-----|
|-------3-|-3---3---|-----3---|-----0-3-|---3-----|-3-------|
|-----2---|---------|-2-----2-|-0-------|-------2-|-----2---|
|-0-------|---------|---------|---------|-0-------|-------0-|
|---------|---------|---------|---------|---------|---------|
|---------|---------|---------|---------|---------|---------|
    we homeless 

|---0-----|-3-----3-||----2-----|-2-----2-|---0-----|---3-----|
|-------3-|---------||o-------3-|---3-3---|-----3---|-----0-3-|
|-----4---|---4-----||------2---|---------|-2-----2-|-0-------|
|-2-------|-----2---||--0-------|---------|---------|---------|
|---------|---------||o---------|---------|---------|---------|
|---------|---------||----------|---------|---------|---------|
    we homeless   we homeless       the moonlight...

|---2-----|-2-----2-|---0-----|-0-----0--||
|-------3-|-----3---|-------3-|-----3---o||
|-----2---|---2-----|-----4---|---4------||
|-0-------|---------|-2-------|----------||
|---------|---------|---------|---------o||
|---------|---------|---------|----------||
                        we homeless

Other chords and tabulatures on paul-simon.info

Lyrics :homeless
Google Advertisement