www.paul-simon.info 
The neck of my Guitar
  Tabulatures for "Bookends"


4-----0--1--|-----0--1--|-----0--1--|-----0--1--|--0--------|
C--3--------|--3--------|--3--------|--3--------|-----1-----|
A-----0--2--|-----0--2--|-----0--2--|-----0--2--|--0-----0--|
P--3--------|--3--------|--3--------|--3--------|-----2-----|
O-----------|-----------|-----------|-----------|--------3--|
4-----------|-----------|-----------|-----------|-----------|

4-----0-----|-----------|-----------------|--0--------|-----------|
C--1-----1--|--3--1-----|-----1-----3--1--|-----1-----|--1--------|
A-----0-----|--------2--|-----------------|--0-----0--|-----------|
P--2-----2--|--3--3-----|--3-----3--------|-----2-----|--2--------|
O-----------|--------3--|-----------------|--------3--|-----------|
4-----------|-----------|-----------------|-----------|-----------|

4-----0--1--|-----0--1--|-----0--1--|-----0--1--|--0--------|
C--3--------|--3--------|--3--------|--3--------|-----1-----|
A-----0--2--|-----0--2--|-----0--2--|-----0--2--|--0-----0--|
P--3--------|--3--------|--3--------|--3--------|-----2-----|
O-----------|-----------|-----------|-----------|--------3--|
4-----------|-----------|-----------|-----------|-----------|

4-----0-----|-----------|-----------------|--0--------|-----------|
C--1-----1--|--3--1-----|-----1-----3--1--|-----1-----|--------1--|
A-----0-----|--------2--|-----------------|--0--------|-----0-----|
P--2-----2--|--3--3-----|--3-----3--------|-----2-----|--2-----2--|
O-----------|--------3--|-----------------|-----------|-----3-----|
4-----------|-----------|-----------------|-----------|--3--------|

Repeat for verses...

Time it was and what a time it was it was
A time of innocence, a time of confidences.
Long ago it must be, I have a photograph.
Preserve your memories, they're all that's left you...

Begin again with new fourth measure...

4-----0-h1-p0-----|
C--3-----------3--|
A-----0-h2-p0-----|
P--3-----------3--|
O-----------------|
4-----------------|

Play to end...

Other chords and tabulatures on paul-simon.info

Tabulatures :benedictus
Google Advertisement