www.paul-simon.info 
The neck of my Guitar
  Tabulatures for "Cecilia"

-----------------------------------------------------------------------------
--0-------0--1--0------0------0---1--0--------0------------------------------
------0-------------2---------------------2---------2---0--------------------
-----------------------------------------------------------------------------
-----------------------------------------------------------------------------
-----------------------------------------------------------------------------



-----------------------------------------------------------------------------
-----------------------------------------------------------------------------
-----------------------------------------------------------------------------
-----------------------------------------------------------------------------
--3--2--0--------2--3--2--0------------2--3--2--0---------------------------
-------------3------------------3---------------------3----2-----------------


There you go. Hope you have fun!

Other chords and tabulatures on paul-simon.info

Chords :cecilia
Google Advertisement
Chords :cecilia
Tabulatures :cecilia