www.paul-simon.info 
The neck of my Guitar
  Tabulatures for "Long, Long Day"

  CMAJ7            G                 CMAJ7            G 
|---------12-----|-----------------|-------15--17---- |15---------------| 
|----- 8---------|-----------------|-----8------------|--15--11SL-8-----| 
|--7h9-----------|------7-9--7-----|-7-9------------- |-----------------| 
|----------------|-7h9-------------|----------------- |-----------------| 
|----------------|-----------------|------------------|-----------------| 
|----------------|-----------------|------------------|-----------------| 



  CMAJ7                  G             F                       E        
|--------12-------|-12-12p10--------|-----------------|-----------------| 
|------8----------|----------12- ---|---8-10-11-10----|-11-10-----------| 
|--7h9------------|-----------------|-----------------|-----------------| 
|-----------------|-----------------|-----------------|-----------------| 
|-----------------|-----------------|-----------------|-----------------| 
|-----------------|-----------------|-----------------|--------0--2--4--| 



  A          A/G#          C#7add3 C#7addb3
|-------------------------|----------------|
|--2--------------2-------|----5----4------|
|--2--------------2-------|----4----4------|
|--2--------------2-------|----3----3------|
|0------------------------|--4-4--4--------|
|---------------4---------|----------------|
    Itīs been a long, long  day            



  F#m             B7          E                
|--2--------------2-------|---0---------------|-----------|
|--2--------------4-------|---0---------------|-----------|
|--2--------------2-------|---1---------------|-----------|
|--4--------------4-------|---2---------------|-----------|
|----------------2--------|---2---------------|-----------|
|-2-----------------------|--0----------------|------0-2-4|
     I got some run-down     shoes 


  A             Bbdim         Badd9    C#7add3
|-------------------------|-----4------------|
|---2--------------2------|-----4-------5----|
|---2--------------0------|----4--------4----|
|--2---------------2------|-----------3------|
|-0---------------1------ |--2-------4-------|
|-------------------------|------------------|
     Ainīt got no place to stay   But any old 


  C#7addb3  C#dim     F#m  
|-----------------|-----2----------2----| 
|---4------3------|-----2----------2----| 
|---4------4------|-----2----------2----| 
|--3------3-------|----2----------2-----| 
|-4------4--------|---------------------| 
|-----------------|--2---------2--------| 
 place   will be       okay    Itīs been a 

    B   B/C bass      C#m               G#                  C#m 
|-----------------|-----------------|-------4----------|----4-------------| 
|---4---4---------|-----5-----5-----|-------4----------|----5-------------| 
|---4---4---------|-----6-----6-----|-----5------------|----6-------------| 
|--4----4---------|----6-----6------|---6--------------|---6--------------| 
|-2----3----------|--4------4-------|---6--------------|--4---------------| 
|-----------------|-----------------|--4---------------|------------------| 
 long, long         day                                   goodnight 


   Bm/ G bass       Bm/A bass D/A bass    Asus4  A               Emaj7 
|-------2----------|--2-------2------|------------------|-----4------------| 
|-------3----------|--3-------3------|--3-----2---------|-----4------------| 
|------4-----------|--4-------2------|--2-----2---------|-----4------------| 
|----4-------------|--0--------------|--2-----2---------|----2-------------| 
|------------------|--0-------2------|-0-----0----------|------------------| 
|--3---------------|-----------------|------------------|--0---------------| 
                     good              night               my love            


  A          A/G#          C#7add3 C#7addb3 
|-------------------------|----------------| 
|--2--------------2-------|----5----4------| 
|--2--------------2-------|----4----4------| 
|--2--------------2-------|----3----3------| 
|0------------------------|--4-4--4--------| 
|----------------4--------|----------------| 
  I sure been  on this      road            



  F#m             B7          E                
|--2--------------2-------|---0---------------|------| 
|--2--------------4-------|---0---------------|------|
|--2--------------2-------|---1---------------|------|
|--4--------------4-------|---2---------------|------|
|----------------2--------|---2---------------|------|
|-2-----------------------|--0----------------|-0-2-4|
 Done nearly  fourteen      years  



  A             Bbdim       Badd9    C#7add3       
|-------------------------|-----4-----------------| 
|---2--------------2------|-----4---------5-------| 
|---2--------------0------|----4----------4-------| 
|--2---------------2------|-------------3---------| 
|-0---------------1------ |--2---------4----------| 
|-------------------------|-----------------------| 
 Canīt say my    nameīs well known You donīt see my  



 C#7addb3  C#dim     F#m  
|-------------------|-----2----------2----| 
|---4--------3------|-----2----------2----| 
|---4--------4------|-----2----------2----| 
|--3--------3-------|----2----------2-----| 
|-4--------4--------|---------------------| 
|-------------------|--2---------2--------| 
  face in Rolling     Stone But I sure been 



    B   B/C bass      C#m7      G#        C#m 
|-----------------|--------------------|-------4----------| 
|---4---4---------|-----5------4-------|----5-------------| 
|---4---4---------|-----4------5-------|----6-------------| 
|--4----4---------|----6-------6-------|---6--------------| 
|-2----3----------|--4--------6--------|--4---------------| 
|-----------------|----------4---------|------------------| 
 on   this           road                 goodnight    


   Bm/ G bass         Bm/A    D/A        Asus4                  Emaj7 
|-------2----------|---2-------2-------|------------------|------4-----------| 
|-------3----------|---3-------3-------|--3-------2-------|------4-----------| 
|------4-----------|---4-------2-------|--2-------2-------|------4-----------| 
|----4-------------|-------------------|--2-------2-------|-----2------------| 
|------------------|---0-------0-------|-0-------0--------|------------------| 
|--3---------------|-------------------|------------------|---0--------------| 
                      good               night 


 CMAJ7            G            CMAJ7          G 
|---0-----------|--3---------|--0-----------|---3------------| 
|---0-----------|--0---------|--0-----------|---0------------| 
|---0-----------|--0---------|--0-----------|---0------------| 
|---2-----------|------------|--2-----------|---0------------| 
|--3------------|------------|-3------------|----------------| 
|--3------------|-3----------|-3------------|--3-------------| 
  Slow            motion       Half a dollar   bill  


 CMAJ7           G                 F       B        
|---0----------|---3--------------|--1-----2----|-------------------------| 
|---0----------|---0--------------|--1-----4----|-------------------------| 
|---0----------|---0--------------|--2-----4----|-------------------------| 
|---2----------|---0--------------|--------4----|-------------------------| 
|--3-----------|------------0----1|-------2-----|-------------------------| 
|--3-----------|--3-----3---------|-1-----------|----------------0--2--4--| 
 Jukebox in the corner  Shooting to kill                      And itīs been aâ€Ķ  


 A          A/G#          C#7add3 C#7addb3  
|-------------------------|----------------| 
|--2--------------2-------|----5----4------| 
|--2--------------2-------|----4----4------| 
|--2--------------2-------|----3----3------| 
|0------------------------|--4-4--4--------| 
|---------------4---------|----------------| 
  Itīs been a long, long    day             



 F#m             B7          E                
|--2--------------2-------|---0---------------|------|
|--2--------------4-------|---0---------------|------|
|--2--------------2-------|---1---------------|------|
|--4--------------4-------|---2---------------|-2-1-0|
|----------------2--------|---2---------------|------|
|-2-----------------------|--0----------------|-0-2-4|
  I sure could  use a       friend  



  A             Bbdim       Badd9    C#7add3       
|-------------------------|-----4-----------------| 
|---2--------------2------|-----4---------5-------| 
|---2--------------0------|----4----------4-------| 
|--2---------------2------|-------------3---------| 
|-0---------------1------ |--2---------4----------| 
|-------------------------|-----------------------| 
  Donīt know what else to   say        I hate to      


 C#7addb3  C#dim     F#m  
|-------------------|-----2----------2----| 
|---4--------3------|-----2----------2----| 
|---4--------4------|-----2----------2----| 
|--3--------3-------|----2----------2-----| 
|-4--------4--------|---------------------| 
|-------------------|--2---------2--------| 
 abuse  an old       clichÃĐ But itīs been a 



    B   B/C bass      C#m     E            A     A         
|-----------------|-----------0--------|-----------------| 
|---4---4---------|----5------0--------|---2-----2-------| 
|---4---4---------|----6------1--------|---2-----2-------| 
|--4----4---------|----6------2--------|---2-----2-------| 
|-2----3----------|--4--------2--------|--0-----0--------| 
|-----------------|----------0---------|-----------------| 
 long,   long      day                          Itīs been a  



                      C                                    Emaj7 
|--------------------|-----------------|-----------------|---4--------------| 
|-5---------5--------|-1---------------|-----------------|---4--------------| 
|-5---------5--------|-0---------------|-----------------|---4--------------| 
|-4---------2--------|-2---------------|-----------------|---2--------------| 
|--------------------|-3---------------|-----------------|------------------| 
|-4---------2--------|-----------------|-----------------|---0--------------| 
  long,    long       day

Other chords and tabulatures on paul-simon.info

Chords :long long day
Google Advertisement
Lyrics :long long day