www.paul-simon.info 
The neck of my Guitar
  Tabulatures for "Carlos Dominguez"

Carlos Dominguez

Capo 2

  3/4                         4/4 
e|---0---0---0-|-------------|--------0---0---0-|
B|-------------|-------------|-0--0h1---1---1---|
G|-------------|------%------|------------------|
D|---------2---|-------------|------------------|
A|-----2-------|-------------|------------------|
E|-0-----------|-------------|------------------|

  3/4
e|---0---0---0-|---0---0---0-|--0---0---0-|
B|-1---1---1---|-0---0---0---|0-----------|
G|-------------|-------------|----0-------|
D|-------------|-------------|--------4---|
A|-------------|-------------|------------|
E|-------------|-------------|------------|


e|---0---0---0-|-----0---0---0-|---0---0---0-|
B|-------------|---------------|-------------|
G|-------------|---------------|-------------|
D|-2---2---0---|-0h2---2---2---|-------------|
A|-------------|---------------|-3-----------|
E|-------------|---------------|-----3---2---|

e|---0---0---0-|--------------|------------|---0---0---0-|
B|-------------|--------------|------------|-------------|
G|-------------|------%-------|------%-----|---------0---|
D|---------2---|--------------|------------|-------------|
A|-----2-------|--------------|------------|-----2-------|
E|-0-----------|--------------|------------|-0-----------|

The picking pattern is very simple in the first verse. The other parts of the song are strummed.

Em                   D (/f#)
Carlos Dominguez, an unhappy man
Em              D (/f#)
Always running away
Em                          D (/f#)
What are you searching for, Carlos Dominguez 
C                    B7
Why do you cry every day?

B7  Em
Im searching for something  
Em   B7
That I cannot find
B7 C
I  look for a way
C       B7
I might find peace of mind
B7 G
I  run cause Im lost
G   D (/f#)
Im afraid so I cry
D (/f#) C
You     ask why I search
C         B7
There are many reasons why

E   F E D E     Em

Carlos Dominguez, an unhappy man
Always running away
What are you searching for, Carlos Dominguez
Why do you cry every day?

I search for a truth
All I found was a lie
I look for eternity
But I find all men die
Im looking for answers
But I find only faith
Im searching for love
All I find in this world is hate

Em

Carlos Dominguez, an unhappy man
Always running away
What are you searching for, Carlos Dominguez
Why do you cry every day?

[ending]

e|---0---0---0-|---0---0---0-|
B|-------------|---------0---|
G|-------------|-----0-------|
D|---------2---|-2-----------|
A|-----2-------|-------------|
E|-0-----------|-------------|

e|-----0---0---0-|---0---0---0-|---0---0---0-|---0---0---0-|
B|-0h1---1---1---|-1---1---1---|-0---0---0---|-0-----------|
G|---------------|-------------|-------------|-------------|
D|---------------|-------------|-------------|-----2---4---|
A|---------------|-------------|-------------|-------------|
E|---------------|-------------|-------------|-------------|


e|---0---0---0-|-----0---0---0-|-------------|-0-----------|
B|-------------|---------------|-------------|-0-----------|
G|-------------|---------------|-------------|-0-----------|
D|-2---2---0---|-0h2---2---2---|-------------|-2-----------|
A|-------------|---------------|-2-----------|-2-----------|
E|-------------|---------------|-----3---2---|-0-----------|

Other chords and tabulatures on paul-simon.info

Lyrics :carlos and yolanda
Google Advertisement
Lyrics :carlos dominguez