www.paul-simon.info 
The neck of my Guitar
  Tabulatures for "Late in the evening"

----------------------------------------------------------------------------
     Late in the evening - Paul Simon
----------------------------------------------------------------------------
Tabbed by: Ryan Baker

Email:  ohiogrown04@aol.com

Tuning:  Standard

Intro:

e|-1-----------------------6--------------------1------------8----------1-|
B|-1-----------------------6--------------------1------------8----------1-|
G|-2-----------------------7--------------------2------------9----------2-|
D|-3-----------------------8--------------------3------------10---------3-|
A|-3-----------------------8--------------------3------------10---------3-|
E|-1-----------------------6--------------------1------------8----------1-|

Verse:

e|6---------1---------6---------1----------8---------1--------------------|
B|6---------1---------6---------1----------8---------1--------------------|
G|7---------2---------7---------2----------9---------2--------------------|
D|8---------3---------8---------3----------10--------3--------------------|
A|8---------3---------8---------3----------10--------3--------------------|
E|6---------1---------6---------1----------8---------1--------------------|

Lead Riff:

e|13-13p10----10-13-13-13p10----10-13-13p10----10-13-17-15-13-13p10----10-|
B|----------11----------------11-------------11----------------------11---|
G|------------------------------------------------------------------------|
D|------------------------------------------------------------------------|
A|------------------------------------------------------------------------|
E|------------------------------------------------------------------------|

e|-13-17-15-13-13-13-13-13p10----10-13-13-13p10---10-13-18-18-17-15-13-17-|
B|----------------------------11---------------11-------------------------|
G|------------------------------------------------------------------------|
D|------------------------------------------------------------------------|
A|------------------------------------------------------------------------|
E|------------------------------------------------------------------------|

e|-13-13-17-18-17-13-13-17-18-17-18-17-15-13-12-13h15p13-18-18-17-17-15---|
B|------------------------------------------------------------------------|
G|------------------------------------------------------------------------|
D|------------------------------------------------------------------------|
A|------------------------------------------------------------------------|
E|------------------------------------------------------------------------|

e|15-13-13-13-12-13-------------------------------------------------------|
B|------------------------------------------------------------------------|
G|------------------------------------------------------------------------|
D|------------------------------------------------------------------------|
A|------------------------------------------------------------------------|
E|------------------------------------------------------------------------|

e|------------------------------------------------------------------------|
B|------------------------------------------------------------------------|
G|------------------------------------------------------------------------|
D|------------------------------------------------------------------------|
A|------------------------------------------------------------------------|
E|------------------------------------------------------------------------|

e|------------------------------------------------------------------------|
B|------------------------------------------------------------------------|
G|------------------------------------------------------------------------|
D|------------------------------------------------------------------------|
A|------------------------------------------------------------------------|
E|------------------------------------------------------------------------|


| /  slide up
|   slide down
| h  hammer-on
| p  pull-off
| ~  vibrato
| +  harmonic
| x  Mute note
=========================================================================

Other chords and tabulatures on paul-simon.info

Tabulatures :a poem on the underground wall
Google Advertisement
Chords :a poem on the underground wall
Tabulatures :a poem on the underground wall