www.paul-simon.info 
The neck of my Guitar
  Tabulatures for "Killer Wants To Go To College (intro)"

KILLER WANTS TO GO TO COLLEGE (I & II) intro:

Capo: 3rd fret

--------------------------------------------------------------------
--------------------------------------------------------------------
--------------------------------------------------------------------
----0---2---0---2---0---2---0---2-----------------------------------
------------------------------------2---3---2------3---2---3---2----
--3---3---3---3---3---3---3---3---0---0---0------0---0---0---0------


--------------------------------------------------------------------
--------------------------------------------------------------------
------------0-------------------------------------------------------
----2---3-------2-----0---------------0---2---0---2---0-------------
--3---3---3---3-----------2---3---0---------------------------------
--------------------3---3---3---3---3---3---3---3---3---------------

Other chords and tabulatures on paul-simon.info

Lyrics :killer wants to go to college
Google Advertisement
Lyrics :killer wants to go to college ii