www.paul-simon.info 
The neck of my Guitar
  Tabulatures for "Think too Much (b)"

Note that this is in Drop-D tuning.  The only two chords are
D=000232
Bm=224432
With some additional notes here and there...

   D
E|------2-----3--3--2------2-----3--3--2--0--|
B|--------3------------------3---------------|
G|----------2------------------2-------------|
D|-------------------------------------------|
A|-------------------------------------------|
D|-0--0---------------0--0-------------------|

   Bm
E|------------0-0-------------0-0---0--------|
B|------3---------3------3--------3----------|
G|--------4----------------4----------repeat-|
D|----------4----------------4---------------|
A|-2--2-------------2--2---------------------|
D|-------------------------------------------|

The smartest people in the world
Have gathered in Los Angeles
To analyze our love affair
And finally unscramble us

And they sat among our photographs
Examined every one
And in the end we compromise
And met the morning sun

The left side of the brain
Dominates the right
And the right side has to labor through
The long a speechless night

Maybe I think too much
Maybe I think too much Ohh Ohhh
Maybe I think too much
Maybe I think too much Ohh Ohhh

In the night my father came to me
And held me to his chest
He said, "There's not much more that you can do,
Go on and get some rest"
And I said, "Yeah,

Maybe I think too much
Maybe I think too much Ohh Ohhh
Maybe I think too much
Maybe I think too much Ohh Ohhh

Other chords and tabulatures on paul-simon.info

Chords :think too much a
Google Advertisement
Chords :think too much b