www.paul-simon.info 
The neck of my Guitar
  Tabulatures for "On the side of a Hill"

Capo 3rd fret

    Am                Am/G              Fmaj7             Em
e:|-----------------|-----------------|-----------------|-----------------|
B:|------0h1p0------|------0h1p0------|------0h1p0------|------0----------|
G:|-----2------2---2|-----2------2---2|-----2------2---2|------0h1p0------|
D:|----2---------2--|----2---------2--|----2---------2--|-----2----------2|
A:|-0---------------|-----------------|-----------------|----2---------2--|
E:|-----------------|-3---------------|-1---------------|-0----------0----|


    Am                                  Am      G
e:|---------------0-|---------------0-|-----------------|-----------------|
B:|-------1-----1---|-------1-----1---|-------1---------|-----------------|
G:|-----2-----2-----|-----2-----2-----|-----2---------0-|---0-----------0-|
D:|---2-----2-------|---2-----2-------|---2---------0---|-2---0-------0---|
A:|-0---------------|-0---------------|-0---------2-----|-------3-2-3-----|
E:|-----------------|-----------------|---------3-------|-----------------|

                                On the side  ...   in a land ... somewhere


    G                 G                 C
e:|-----------------|-----------------|-----------------|-----------------|
B:|-------------0---|-----------------|-------1-1-------|---------------3-|
G:|-----------0-----|-------0---------|-----0---2-0---0-|----0----0-0h2---|
D:|---------0-----0-|-----0-----------|---2---------2---|--2----0---------|
A:|---0-2-3---------|---2---------0-2-|-3---------------|-3---------------|
E:|-3---------------|-3--------3------|-----------------|-----------------|

                            A ... boy lies                   asleep    in 


    G                                   Em       D         C
e:|-----------------|-----------------|-----------------|-----------------|
B:|----------------0|---------------0-|-------0-------3-|-----------------|
G:|-------0------0--|-------0-----0---|-----0------2----|----0------------|
D:|-----0------0----|-----0-----0-----|---2------0------|-----------------|
A:|---2----0h2------|---2-----2-------|-----------------|--3----2--0------|
E:|-3---------------|-3---------------|-0---------------|-----------------|

 earth                            While down .. valley a  cruel   war


    G       Bm                          Am      G         C
e:|-----------------|-----------------|-----------------|-----------------|
B:|-----------------|-------3---------|-------1---------|-------1-------0-|
G:|-------0-------4-|-----4---------4-|-----2---------0-|-----0-------0---|
D:|-----0-------4---|---4---------4---|---2---------0---|---2-------2-----|
A:|---2-------2-----|-2---------2-----|-0---------2-----|-3-------3-------|
E:|-3-------2-------|---------2-------|---------3-------|-----------------|

     rages                         and people ...  what a child's


    D                 Em                G                  
e:|-----------------|-----------------|-----------------|-----------------|
B:|-------3-------3-|----------------0|--------------0--|--0h1--0h1p0-----|
G:|-----0-------0---|-----0--------0--|--------------0--|--0h2--0h2p0-----|
D:|---4-------4-----|----2-------0----|-----------0-----|-----------------|
A:|-5-------5-------|--------0h2------|---0-2-3---------|-----------------|
E:|-----------------|-0---------------|-3---------------|-----------------|

    life     is worth


    Am                                  Am      G         C       G
e:|---------------0-|---------------0-|-----------------|-----------------|
B:|-------1-----1---|-------1-----1---|-------1---------|-----------------|
G:|-----2-----2-----|-----2-----2-----|-----2---------0-|---------------0-|
D:|---2-----2-------|---2-----2-------|---2---------0---|---2---------0---|
A:|-0---------------|-0---------------|-0---------2-----|-3---2-0---2-----|
E:|-----------------|-----------------|---------3-------|---------3-------|

                                On the side .. hill   a   little ...  weeps


                                        C                       D
e:|-----------------|-----------------|------------------|----------------|
B:|---------0-------|-----------------|-------1----------|---------------3|
G:|-------0--------0|-----------------|-----0---0h2-0---0|----0---0--0h2--|
D:|-----0--------0--|-----------------|---2-----0-----2--|--2----0--------|
A:|-0h2--------2----|----------0-2----|-3----------------|-3--------------|
E:|----------3------|---3-------------|------------------|----------------|

                   and waters the grave                      with . silent


    G                                   Em      D          C
e:|-----------------|-----------------|-----------------|-----------------|
B:|----------------0|---------------0-|-------0------3--|-----------------|
G:|-------0------0--|-------0-----0---|-----0-----2-----|-----0-----------|
D:|-----0------0----|-----0-----0-----|---2-----0-------|-----------------|
A:|---2----0h2------|---2-----2-------|-----------------|--3-------2--0---|
E:|-3---------------|-3---------------|-0---------------|-----------------|

 tears                           While  soldier ...  and  polishes a


    G       Bm                          Am      G         C
e:|-----------------|-----------------|-----------------|-----------------|
B:|-----------------|-------3---------|-------1---------|-------1-------1-|
G:|-------0-------4-|-----4---------4-|-----2---------0-|-----0-------0---|
D:|-----0-------4---|---4---------4---|---2---------0---|---2-------2-----|
A:|---2-------2-----|-2---------2-----|-0---------2-----|-3-------3-------|
E:|-3-------2-------|---------2-------|---------3-------|-----------------|

  gun                             that ended life  at the age of       se-


    D                  Em               G
e:|-----------------|-----------------|-----------------|-----------------|
B:|-------3-------3-|----------------0|--------------0--|--0h1--0h1p0-----|
G:|-----0-------0---|------0-------0--|--------------0--|--0h2--0h2p0-----|
D:|---4-------4-----|-----2------0----|-----------0-----|-----------------|
A:|-5-------5-------|--------0h2------|---0-2-3---------|-----------------|
E:|-----------------|--0--------------|-3---------------|-----------------|

   ven             years


    Am                                  Am      G
e:|---------------0-|---------------0-|-----------------|-----------------|
B:|-------1-----1---|-------1-----1---|-------1---------|-----------------|
G:|-----2-----2-----|-----2-----2-----|-----2---------0-|---0-----------0-|
D:|---2-----2-------|---2-----2-------|---2---------0---|-2---0-------0---|
A:|-0---------------|-0---------------|-0---------2-----|-------3-2-3-----|
E:|-----------------|-----------------|---------3-------|-----------------|

                                And the war ... on  in a land .. somewhere


                      G                 C
e:|-----------------|-----------------|------------------|----------------|
B:|-----------0-----|-----------------|-------1----------|---------------3|
G:|---------0-----0-|-------0---------|-----0---0h2-0---0|-----0---0-0h2--|
D:|-------0-----0---|-----0-----------|---2-----------2--|--2-----0-------|
A:|---0-2-----------|---2---------0-2-|-3----------------|-3--------------|
E:|-3---------------|-3--------3------|------------------|----------------|

                           and generals order                 their .. kill


    G                                   Em       D         C
e:|-----------------|-----------------|-----------------|-----------------|
B:|----------------0|---------------0-|-------0------3--|-----------------|
G:|-------0------0--|-------0-----0---|-----0------2----|-----------------|
D:|-----0------0----|-----0-----0-----|---2------0------|-----2-----------|
A:|---2----0h2------|---2-----2-------|-----------------|--3------2---0---|
E:|-3---------------|-3---------------|-0---------------|-----------------|

                                And to fight ..  cause .. long   for-


    G       Bm                          Am      G
e:|-----------------|-----------------|-----------------|-----------------|
B:|-----------------|-------3---------|-------1---------|--------0--------|
G:|-------0-------4-|-----4---------4-|-----2---------0-|------0----------|
D:|-----0-------4---|---4---------4---|---2---------0---|----0------------|
A:|---2-------2-----|-2---------2-----|-0---------2-----|--2--------------|
E:|-3-------2-------|---------2-------|---------3-------|-----------------|

   gotten                        While .. cloud weeps        on the


    C                 D                 G                 C
e:|-----------------|-------2---------|-----------------|-------------(3)-|
B:|-------1-------1-|-----3------3----|--------------0--|----1-------0----|
G:|-----0-------0---|---2----0h2-----2|--------------0--|----0-----0------|
D:|---2-------2-----|-0------------0--|-----------0-----|-2------0--------|
A:|-3-------3-------|-----------------|---0-2-3---------|-----------------|
E:|-----------------|-----------------|-3---------------|-----------------|

  side               of              a hill


    C       G/B        D         G
e:|-----------------|-------2----3----|
B:|-------0-------0-|-------3----0----|
G:|-----0-------0---|-------2----0----|
D:|---2-------0-----|----0-------0----|
A:|-3-------2-------|--0---------2----|
E:|-----------------|------------3----|



Lyrics:

On the side of a hill,
In a land called "somewhere,"
A little boy lies asleep in the earth.
While down in the valley,
A cruel war rages,
And people forget what a child's life is worth.

On the side of a hill,
A little cloud weeps,
And waters the grave with it's silent tears.
While a soldier cleans,
And polishes a gun,
That ended a life at the age of seven years.

And the war rages on,
In a land called "somewhere,"
And generals order their men to kill,
And to fight for a cause they've long ago forgotten,
While a little cloud weeps,
On the side of a hill.

Other chords and tabulatures on paul-simon.info

Chords :on the side of a hill
Google Advertisement
Lyrics :on the side of a hill