www.paul-simon.info 
The neck of my Guitar
  Tabulatures for "Take me to the Mardi Gras (intro)"

4/4                              9/8                 4/4
|-/5-5---5-------|------5-7/9-9-9-||------------------||----------0-4-5-|
|------------7-5-|--5h7-----------||--9-9-9-9--2---2-||/-9-9-9---0-5-7-|
|-/6-6-6-6---7-6-|--6h7-6-7/9-9-9-||--9-9-9-9--2---2-||/-9-9-9---------|
|----------------|7---------------||------------------||----------------|
|0---------------|----------------||------------------||----------------|
|----------------|----------------||0---------0---0---||0-------0-------|

|7-7-7-5-4---4-5-|7-7-7-5-4/9-7-5-|------------- ---|----------------||
|9-9-9-7-5---5-7-|9-9-9-7-5-------|2-2-2-2---x-- ---|2---------------||
|----------------|---------/9-7-6-|2-2-2-2---x-- ---|2---------------||
|----------------|----------------|2-2-2-2---x-- ---|2---------------||
|----------------|----------------|0-----0------ -0-|0---------------||
|0---------0-----|0---------------|------------0h2--|----------------||

4/4
----||/5-5---5---------|----5-7/9-9-9---|----------------|----------0-4-5-|
----|| ----------7-5---|5h7-------------|9-9-9-9--2---2-|/-9-9-9---0-5-7-|
----||/6-6-6-6---7-6---|6h7-6-7/9-9-9---|9-9-9-9--2---2-|/-9-9-9---------|
----|| --------------7-|----------------|----------------|----------------|
--0-|| ----------------|----------------|----------------|----------------|
----|| ----------------|--------------0-|--------0---0---|0-------0-------|

Other chords and tabulatures on paul-simon.info

Chords :take me to the mardi gras
Google Advertisement
Lyrics :take me to the mardi gras