www.paul-simon.info 
The neck of my Guitar
  Tabulatures for "Mother and Child Reunion"

[Intro]
e-|---------|
B-|---------|
G-|---------|
D-|-H-H-H-H-|
A-|-7-7-7-7-|
E-|---------|
                                                                     Play twice
e-|-----------------|----------------------|-----------------|-----------------|
B-|-----------------|----------------------|-----------------|-----------------|
G-|-----------------|----------------------|-----------------|-----------------|
D-|-7-7-7-7-7-7-7-7-|-7-7-7-7-7-7-7-7-7/11-|-----------------|-----------------|
A-|-----------------|----------------------|-9-9-9-9-9-9-9-9-|-9-9-9-9-9-9-9-9-|
E-|-----------------|----------------------|-----------------|-----------------|
  [A / / / / / / / / / / / / / / / / / /C# / F#/ / / / / / / / / / / / / / / / ]
   pm just for the first 1 1/2 bars

[Chorus]
   D           E        A
No I would not give you false hope
        D           E        A
On this strange and mournful day
        D          E       A\F#
But the mother and child reunion
   D/Riff A A      B
Is only  a  motion away

[Verse]
          F#(pm)                          E(pm)
Oh little darling of mine I can't for the life of me
           F#(pm)                        E(pm)
Remember a sadder day I know they say to let it be
                       F#(pm)
But it just don't work out that way
                   D                      E
In the course of a lifetime runs over and over again

Repeat Chorus

[Verse]
Oh little darling of mine I just can't believe it's so
Though it seems strange to say I never been laid so low
In such a mysterious way
And the course of a lifetime runs over and over again

Repeat Chorus 

[Outro]
        D          E       A 
But the mother and child reunion
   D      E       A
Is only a motion away
        D          E       A
But the mother and child reunion
   D/Riff B A      B
Is only  a  moment away

Repeat Outro

D/Riff B A      B
Only  a  moment away

End on B.

Riff A
E-|----------|
B-|----------|
G-|-7--------|
D-|----7--9--|
A-|-5--------|
E-|----5--7--|

Riff B
E-|----------|
B-|----------|
G-|-7--6--4--|
D-|----------|
A-|-5--4--2--|
E-|----------|

Other chords and tabulatures on paul-simon.info

Tabulatures :father and daughter
Google Advertisement