www.paul-simon.info 
The neck of my Guitar
  Tabulatures for "America"

Capo 3rd fret  

      C                 C/B               Am                C
e:|-----------------|-----------------|-------------0---|-----------------|
B:|-----------------|-------(1)--(1)--|--------1----1---|-----------------|
G:|-------------0---|-------(0)--(0)--|--------2----0---|--------0--------|
D:|-------(2)-------|-----------------|--------2----2---|-----------------|
A:|---3-------------|---2-------------|---0-------------|-----3-----------|
E:|-----------------|-----------------|-----------------|---3---------0---|


      F                                                    bend bend
e:|-----------------|---1----1--------|-----------------|-----------------|
B:|-----------------|---1----1--------|-------------1---|---3----3----1---|
G:|-----------------|---2----2--------|-------0h2-------|-----------------|
D:|-------(3)-------|---3----3----3---|--0h3------------|-----------------|
A:|-----------------|---3----3----3---|-----------------|-----------------|
E:|---1---------1---|---1----1----1---|-----------------|-----------------|


      C                 C/B              Am                C6
e:|-----------------|-----------------|-----------------|----0---0-0------|
B:|-----------------|-------1-----1---|--1---1-1---1-1--|----1---1-1------|
G:|-------0-----0---|-------0-----0---|--2---2-2---2-2--|----2---2-2------|
D:|-------2-2---2---|-------2-2---2---|--2---2-2---2-2--|----2---2-2------|
A:|---3-------------|---2-------------|--0---0-0---0-0--|-----------------|
E:|-----------------|-----------------|-----------------|--3-----------3--|


      F                                  bend bend bend     F         
e:|-----------------|-----------------|-----------------|-----------------|
B:|---1-------------|---1-------------|---3----3----3---|---1-------------|
G:|---2-------------|---2---x---------|---3----3----3---|---2----2----0---|
D:|---3-----x--(3)--|---3-----x-------|-----------------|--------3----2---|
A:|------------(0)--|---0---------0---|-----------------|-----------------|
E:|-----------------|-----------------|-----------------|-----------------|


  $   C                 C/B               Am                C6
e:|-----------------|-----------------|-----------------|-----------------|
B:|-----------------|-----------------|--------1----1-1-|--------1----1---|
G:|-------0----0----|--------0----0---|--------2----2---|--------2----2---|
D:|-------2----2----|--------2----2---|--------2----2---|--------2----2---|
A:|---3-------------|---2-------------|---0-------------|-----------------|
E:|-----------------|-----------------|-----------------|---3-------------|

     Let  us  be      lovers    we'll    marry     our    fortunes     to -


      F                               #
e:|-----------------|---1---1-1---1---|--1-1---1------1-|---1-------------|
B:|-----------------|---1---1-1---1---|--1h3---1----1---|---1-------------|
G:|---2----2----2---|---2---2-2---2---|--2h3---2----2---|---2---2---------|
D:|---3----3----3---|---3---3-3---3---|--------3----3---|---3-----3---3---|
A:|---3----3----3---|---3---3-3---3---|-----------------|---3-----3---3---|
E:|---1----1----1---|---1---1-1---1---|-----------------|---------1---1---|

  - gether


      C                 C/B               Am
e:|-----------------|-----------------|-----------------|-----------------|
B:|-----------------|-----------------|--------1----1---|---1---1-1---1---|
G:|--------0----0---|--------0----0---|--------2----2---|---2---2-2---2---|
D:|--------2----2---|--------2----2---|--------2----2---|---2---2-2---2---|
A:|---3-------------|---2-------------|---0---------0---|---0---0-0---0---|
E:|-----------------|-----------------|-----------------|-----------------|

     I've got some     real  es - tate   here  in   my      bag


                                          Em                Em7
e:|-----------------|-------0-0---0---|---0---0-0---0---|-----------------|
B:|-------------1---|-------1-1---1---|---0---0-0---0---|---0---0-0---0---|
G:|-------0h2-------|-------2-2---2---|---0---0-0---0---|---0---0-0---0---|
D:|--0h2------------|---2---2-2---2---|---2---2-2---2---|---0---0-0---0---|
A:|-----------------|-------0-0---0---|---2---2-2---2---|---2---2-2---2---|
E:|-----------------|-----------------|---0---0-0---0---|---0---0-0---0---|

                                                  So we  bought a pack of


      A7
e:|---0---0-0---0---|----------|----------|----------|----------|---------|
B:|---2---2-2---2---|----------|----------|----------|----------|---------|
G:|---0---0-0---0---|----%-----|----%-----|----%-----|----%-----|----%----|
D:|---2---2-2---2---|----------|----------|----------|----------|---------|
A:|---0---0-0---0---|----------|----------|----------|----------|---------|
E:|-----------------|----------|----------|----------|----------|---------|

      cigarettes                 and  Mrs. Wagner pies                and


      D                 C                 G                 C
e:|---2---2-2---2---|---0---0-0---0---|-----------------|-----------------|
B:|---3---3-3---3---|---1---1-1---1---|---0----1----3---|-----------------|
G:|---2---2-2---2---|---0---0-0---0---|-----------------|--------0----0---|
D:|---0---0-0---0---|---2---2-2---2---|-----------------|--------2----2---|
A:|-----------------|---3---3-3---3---|--------0----2---|---3-------------|
E:|-----------------|-----------------|---3-------------|-----------------|

     walked            off        to     look  for  A  -   mer  -   -   -


      C/B               Am                Am/G              F
e:|-----------------|-----------------|-----------------|---1---1-1---1-1-|
B:|-----------------|--------1---1-1--|-------1-1---1-1-|---1---1-1---1-1-|
G:|--------0----0---|--------2---2-2--|-------2-2---2-2-|---2---2-2---2-2-|
D:|--------2----2---|--------2---2-2--|-------2-2---2-2-|---3---3-3---3-3-|
A:|---2-------------|---0-------------|-----------------|---3---3-3---3-3-|
E:|-----------------|-----------------|---3-------------|---1---1-1---1-1-|

   -   -   -   ica


      F                                                     C
e:|-----------------|--1-1---1---1-1--|---1---1-1---1-1-|-----------------|
B:|-----------------|--1h3---1---1-1--|---1---1-1---1-1-|---1-------------|
G:|--------%--------|--2h3---2---2-2--|---2---2-2---2-2-|---0---strum-----|
D:|-----------------|-----------------|---3---3-3---3-3-|---2-------------|
A:|-----------------|-----------------|---3---3-3---3-3-|---3-------------|
E:|-----------------|-----------------|---1---1-1---1-1-|-----------------|

                                                            Kathy    I


      C/B               Am                Am/G              F
e:|-----------------|-----------------|-----------------|---1-------------|
B:|---1-------------|---1-------------|---1-------------|---1-------------|
G:|---0---strum-----|---2---strum-----|---2---strum-----|---2---strum-----|
D:|---2-------------|---2-------------|---2-------------|---3-------------|
A:|---2-------------|---0-------------|-----------------|---3-------------|
E:|-----------------|-----------------|---3-------------|---1-------------|

     said  as  we      boarded    a     Greyhound  in     Pittsburgh


      F                                                     C
e:|-----------------|--1-1---1----1-1-|---1-------------|-----------------|
B:|-----------------|--1h3---1----1-1-|---1-------------|---1-------------|
G:|--------%--------|--2h3---2----2-2-|---2-------------|---0---strum-----|
D:|-----------------|-----------------|---3-------------|---2-------------|
A:|-----------------|-----------------|---3-------------|---3-------------|
E:|-----------------|-----------------|---1-------------|-----------------|

                                                            Michigan


      C/B               Am               
e:|-----------------|-----------------|-----------------|-----------------|
B:|---1-------------|---1-------------|-----------------|-----------------|
G:|---0---strum-----|---2---strum-----|--------%--------|--------%--------|
D:|---2-------------|---2-------------|-----------------|-----------------|
A:|---2-------------|---0-------------|-----------------|-----------------|
E:|-----------------|-----------------|-----------------|-----------------|

    seems  like  a     dream  to  me    now


      Am                G
e:|-----------------|---3-------------|-----------------|-----------------|
B:|-----------------|---0-------------|-----------------|-----------------|
G:|--------%--------|---0---strum-----|--------%--------|--------%--------|
D:|-----------------|---0-------------|-----------------|-----------------|
A:|-----------------|---2-------------|-----------------|-----------------|
E:|-----------------|---3-------------|-----------------|-----------------|

                       It  took  me    four  days  to     hitchhike  from


      G             *   D                 G                 D
e:|-----------------|---2---2-2---2---|---3-------------|---2-------------|
B:|-----------------|---3---3-3---3---|---0-------------|---3-------------|
G:|--------%--------|---2---2-2---2---|---0---strum-----|---2---strum-----|
D:|-----------------|---0---0-0---0---|---0-------------|---0-------------|
A:|-----------------|-----------------|---2-------------|-----------------|
E:|-----------------|-----------------|---3-------------|-----------------|

    Saginaw            I've              come        to    look   for


      Cmaj7
e:|---0-------------|-----------------|-----------------|-----------------|
B:|---0-------------|-----------------|-----------------|-----------------|
G:|---0---strum-----|--------%--------|--------%--------|--------%--------|
D:|---2-------------|-----------------|-----------------|-----------------|
A:|---3-------------|-----------------|-----------------|-----------------|
E:|---3-------------|-----------------|-----------------|-----------------|

     Amer      -      -      -     i  -  ca


      Fmaj7/A
e:|---0-------------|-----------------|-----------------|-----------------|
B:|---1-------------|-----------------|-----------------|-----------------|
G:|---2---strum-----|--------%--------|--------%--------|--------%--------|
D:|---3-------------|-----------------|-----------------|-----------------|
A:|---0-------------|-----------------|-----------------|-----------------|
E:|-----------------|-----------------|-----------------|-----------------|

                      Laughing on the bus                        playing


      Fmaj7/A           Cmaj7
e:|-----------------|---0-------------|-----------------|-----------------|
B:|-----------------|---0-------------|-----------------|-----------------|
G:|-------%---------|---0---strum-----|--------%--------|--------%--------|
D:|-----------------|---2-------------|-----------------|-----------------|
A:|-----------------|---3-------------|-----------------|-----------------|
E:|-----------------|---3-------------|-----------------|-----------------|

      games with the  faces


      Cmaj7             Fmaj7/A
e:|-----------------|---0-------------|-----------------|-----------------|
B:|-----------------|---1-------------|-----------------|-----------------|
G:|-------%---------|---2---strum-----|--------%--------|--------%--------|
D:|-----------------|---3-------------|-----------------|-----------------|
A:|-----------------|---0-------------|-----------------|-----------------|
E:|-----------------|-----------------|-----------------|-----------------|

                       She  said the    man   in  the       gaberdine 


      Fmaj7             Cmaj7
e:|-----------------|---0-------------|-----------------|---3----1----0---|
B:|-----------------|---0-------------|-----------------|---0----0----0---|
G:|-------%---------|---0---strum-----|--------%--------|---0----0----0---|
D:|-----------------|---2-------------|-----------------|---2-------------|
A:|-----------------|---3-------------|-----------------|---3-------------|
E:|-----------------|---3-------------|-----------------|-----------------|

    suit  was   a      spy


                        F                                   Fmaj7#11
e:|-----------------|---1-------------|-----------------|---0-------------|
B:|---3----1----0---|---1-------------|-----------------|---0-------------|
G:|---0----0----0---|---2---strum-----|--------%--------|---2---strum-----|
D:|---2----2----2---|---3-------------|-----------------|---3-------------|
A:|---3----3----3---|---3-------------|-----------------|---3-------------|
E:|-----------------|---1-------------|-----------------|---1-------------|

                       I said      be   careful  his      bowtie   is


      Fmaj7#11          C                 C/B               Am
e:|-----------------|-----------------|-----------------|-----------------|
B:|-----------------|---1---1-1--1-1--|-------1-1---1---|--------1----1---|
G:|-------%---------|---0---0-0--0-0--|-------0-0---0---|--------2----2---|
D:|-----------------|---2---2-2--2-2--|-------2-2---2---|--------2----2---|
A:|-----------------|---3---3-3--3-3--|---2-------------|---0-------------|
E:|-----------------|-----------------|-----------------|-----------------|

     really  a         camera


      Am/G             D7/F#                                F
e:|-----------------|-----------------|-----------------|-----------------|
B:|------1----------|-----1--------1--|---------1-------|------1-------1--|
G:|-----------2---2-|----------2------|-----2--------2--|------2----------|
D:|-------------2---|--------2--------|--2--------2-----|------3----------|
A:|-----------------|-----------------|-----------------|-----------------|
E:|---3-------------|--2---------2----|-------2---------|---1-------1-----|





e:|-----------------|
B:|------------1----|
G:|--------------0--|
D:|---2--------2----|
A:|-----------------|
E:|-------1---------|


For the "Toss me a cigarette ..." and "Kathy I'm lost ..." verses, return 
to $ and play through.  At #, use this two bar variation:


     bend bend bend
e:|-----------------|-----------------|
B:|---3----3----3---|---1-------------|
G:|---3----3----3---|---2----2----0---|
D:|-----------------|--------3----2---|
A:|-----------------|-----------------|
E:|-----------------|-----------------|


Then at *, jump to:

      D                 G                 D                 Cmaj7
e:||--2---2-2---2---|---3---3-3---3---|---2-------------|---0-------------|
B:||--3---3-3---3---|---0---0-0---0---|---3-------------|---0-------------|
G:||--2---2-2---2---|---0---0-0---0---|---2---strum-----|---0---strum-----|
D:||--0---0-0---0---|---0---0-0---0---|---0-------------|---2-------------|
A:||----------------|---2---2-2---2---|-----------------|---3-------------|
E:||----------------|---3---3-3---3---|-----------------|---3-------------|

     All              come         to   look   for   A - mer   -    -    -


      Cmaj7
e:|-----------------|-----------------|----------------||
B:|-----------------|-----------------|----------------||
G:|-------%---------|-------%---------|--------%-------||  (repeat 3 times)
D:|-----------------|-----------------|----------------||
A:|-----------------|-----------------|----------------||
E:|-----------------|-----------------|----------------||

    -    -    -   i - ca 


      C                 C/B               Am               C/G
e:|--------------0--|--------------0--|--------------0--|-----------------|
B:|-----------------|---------1-------|------1---1------|----1------------|
G:|---------0-------|-------0----0----|------2---2------|--------0--------|
D:|-------2----2----|-------2----2----|------2---2------|-------------0---|
A:|---3---3----3----|---2-------------|---0-------------|-----------------|
E:|---3-------------|-----------------|-----------------|--3--------------|


    Fmaj7 G/A Fmaj7   Cmaj7 
e:|---0----0--------|---0-------------|
B:|---1----3----1---|---0-------------|
G:|---2----4----2---|---0-------------|
D:|---3----5----3---|---2-------------|
A:|--------0--------|---3-------------|
E:|-----------------|---3-------------|


Lyrics:

Let us be lovers, we'll marry our fortunes together.
I've got some real estate here in my bag.
So we bought a pack of cigarettes and Mrs. Wagner pies,
And walked off to look for America.

"Kathy," I said as we boarded a Greyhound in Pittsburgh,
"Michigan seems like a dream to me now." 
It took me four days to hitchhike from Saginaw.
I've come to look for America.

Laughing on the bus,
Playing games with the faces.
She said the man in the gaberdine suit was a spy.
I said "Be careful, his bowtie is really a camera." 

"Toss me a cigarette.  I think there's one in my raincoat."
"We smoked the last one an hour ago."
So I looked at the scenery.  She read her magazine.
And the moon rose over an open field.

"Kathy, I'm lost."  I said, though I knew she was sleeping.
"I'm empty and aching and I don't know why."
Counting the cars on the New Jersey Turnpike,
They've all come to look for America.
All come to look for America.
All come to look for America.

Other chords and tabulatures on paul-simon.info

Tabulatures :america
Google Advertisement
Chords :america
Lyrics :america
Chords :america
Tabulatures :america
Tabulatures :america full tab
Tabulatures :american tune
Chords :american tune
Lyrics :american tune
Chords :american tune