www.paul-simon.info 
The neck of my Guitar
  Tabulatures for "Scarborough Fair"

Capo 7th

INTRO (play twice):

   Am7           Asus2         Am7           Asus2
   +   +   +     +   +   +     +   +   +     +   +   +
e:---0---------|---0---------|---0---------|---0---------|
B:---------3---|---------0---|---------3---|---------0---|
G:-----0-----0-|-----2-----2-|-----0-----0-|-----2-----2-|
D:-------4-----|-------2-----|-------4-----|-------2-----|
A:-0-----------|-0-----------|-0-----------|-0-----------|
E:-------------|-------------|-------------|-------------|


------------------------------------------------------------------------
This is the verse tab.  It repeats for each verse:

   Are     you   going   to    Scarborough   Fair
   Am7           Asus2         G/B C   G/B   Am7
   +   +   +     +   +   +     +   +   +     +   +   +
e:---0---------|---0---------|-------------|---0---------|
B:---------3---|---------0---|-0---1---0---|---------3---|
G:-----0-----0-|-----2-----2-|-0---0---0---|-----0-----0-|
D:-------4-----|-------2-----|-------------|-------4-----|
A:-0-----------|-0-----------|-2---3---2---|-0-----------|
E:-------------|-------------|-------------|-------------|


                     parsley   sage      rosema -ry  and
   Asus2         C       C/B   Am7           D
   +   +   +     +   +   +     +   +   +     +   +   +
e:---0---------|-------------|-------------|-0---2-------|
B:---------0---|-----1-------|-----1-------|-3---3---3---|
G:-----2-----2-|---0---------|---0---0-----|-------------|
D:-------2-----|-------------|---------2---|-0---------0-|
A:-0-----------|-3-------2---|-0-----------|-------------|
E:-------------|-------------|-------------|-------------|


   thyme____________________________
   Am7           Asus2         Am7           Asus2
   +   +   +     +   +   +     +   +   +     +   +   +
e:---0---------|---0---------|---0---------|---0---------|
B:---------3---|---------0---|---------3---|---------0---|
G:-----0-----0-|-----2-----2-|-----0-----0-|-----2-----2-|
D:-------4-----|-------2-----|-------4-----|-------2-----|
A:-0-----------|-0-----------|-0-----------|-0-----------|
E:-------------|-------------|-------------|-------------|


 remem  -  ber   me      to    one who lives there
   Am7           C                 C/B Am    G
   +   +   +     +   +   +     +   +   +     +   +   +
e:---0---------|---------0---|-------------|-------------|
B:-------------|-----1-------|---1---1---1-|-----0---1p0-|
G:-----0-------|---0-------0-|-------------|---0---------|
D:-------4-----|-------------|-------------|---------2p0-|
A:-0-------0-2-|-3-----------|-3---2---0---|-------------|
E:-------------|-------------|-------------|-3-----------|


                     she     once  was     a     true love of
                     Am7           G             C   G
   +   +       +     +   +   +     +   +   +     +   +   +
e:-----------------|---0---------|-------------|-------------|
B:-1---0h1p0-------|---------3---|---0-----0---|-1---0-------|
G:-----------------|-----0-----0-|-----0---0---|-0---0---0---|
D:-2---0h2p0-------|-------4-----|-------0-----|---------0---|
A:-----------------|-0-----------|-------------|-------------|
E:-------------3---|-------------|-3-----------|---------3---|


   mine__________________________
   Am7           Asus2         Am7           Asus2
   +   +   +     +   +   +     +   +   +     +   +   +
e:---0---------|---0---------|---0---------|---0---------|
B:---------3---|---------0---|---------3---|---------0---|
G:-----0-----0-|-----2-----2-|-----0-----0-|-----2-----2-|
D:-------4-----|-------2-----|-------4-----|-------2-----|
A:-0-----------|-0-----------|-0-----------|-0-----------|
E:-------------|-------------|-------------|-------------|


------------------------------------------------------------------------
LYRICS:
------------------------------------------------------------------------

Are you going to Scarborough Fair
Parsley sage rosemary and thyme
Remember me to one who lives there
She once was a true love of mine

Tell her to make me a cambric shirt
Parsley sage rosemary and thyme
Without no seams nor needle work
Then she'll be a true love of mine

Tell her to find me an acre of land
Parsley sage rosemary and thyme
Between the salt water and the sea strand
Then she'll be a true love of mine

Tell her to reap it with a sickle of leather
Parsley sage rosemary and thyme
And gather it all in a bunch of heather
Then she'll be a true love of mine



Am7 x04030 (this applies to most of the Am7 chords)
Asus2 x02200
C/B x2x010


Other chords and tabulatures on paul-simon.info

Tabulatures :scarborough fair
Google Advertisement