www.paul-simon.info 
The neck of my Guitar
  Tabulatures for "Peace Like a River"

  Em7 
D|---------------------|--0--------0--0---|---------------------| 
A|---------------------|-----3-----3--3---|---------------------| 
F|---------------------|--------0--0--0---|---------------------| 
C|-----2-----0--2------|-----------2------|-----2-----0--2------| 
G|---------------------|------------------|---------------------| 
D|--0-----0--------0---|------------------|--0-----0--------0---| 
  1 


|--0--------0---|---------------------|--0--------0---| 
|-----3-----3---|---------------------|-----3-----3---| 
|--------0--0---|---------------------|--------0--0---| 
|-----------2---|-----2-----0--2------|-----------2---| 
|---------------|---------------------|---------------| 
|---------------|--0-----0--------0---|---------------| 
                 5 

   Ah------------------------------Peace like a Ri-   ver 
|---------------|---------------|-------------------------| 
|---------------|---------------|-------------------------| 
|---------------|---------------|------------------3------| 
|-----2-----2---|-----2-----2---|--------2------------2---| 
|---------------|---------------|-------------------------| 
|--0-----0------|--0-----0------|--0------------0---------| 

   Am7                         G 
   ran through the city- 
|---------------------------|--------------------------| 
|------1--------------1-----|-----0-----------0--------| 
|--------------0------------|-----------0-----------0--| 
|---------2--------------2--|--------0-----------0-----| 
|--0---------------0--------|--------------------------| 
|---------------------------|--3-----------3-----------| 
  10 
                              C                      G 
                          Long   past the mid-night cur- 
|--------------------------|-----0----0--------0--------| 
|-----0-----------0--------|-----1----1--------1-----0--| 
|-----------0-----------0--|-----0----0--------0-----0--| 
|--------0-----------0-----|-----2-------------2-----0--| 
|--------------------------|--3-----------3-------------| 
|--3-----------3-----------|----------------------------| 

                        C              Am 
  -few      we sat starry  eyed-                      Oh- 
|-----3-----------3--|-----0--------|--------------------| 
|-----0--0--------0--|-----1--------|--------------1-----| 
|-----0--0--------0--|-----0--------|--------2-----------| 
|-----0--0--------0--|-----2--------|-----2-----------2--| 
|--3--------3--------|--3-----3--2--|--0-----------------| 
|--------------------|--------------|-----------0--------| 
                       15 
                               Em7 
          Oh-      we   were   satisfied- 
|---------------------------|---------------------| 
|------1-----------1--------|---------------------| 
|------------2-----------2--|---------------------| 
|---------2-----------2-----|-----2-----0--2------| 
|--0------------0-----------|---------------------| 
|---------------------------|--0-----0--------0---| 


|--0--------0---|---------------------|--0--------0---| 
|-----3-----3---|---------------------|-----3-----3---| 
|--------0--0---|---------------------|--------0--0---| 
|-----------2---|-----2-----0-h2------|-----------2---| 
|---------------|---------------------|---------------| 
|---------------|--0-----0--------0---|---------------| 
                  20 

   Ah----------------and I re-mem-ber misin-for-   ma-tion fol- 
|---------------|------------------|-------------------------| 
|---------------|------------------|------------------3------| 
|---------------|------------------|-------------------------| 
|-----2-----2---|-----2--------2---|--------2------------2---| 
|---------------|------------------|-------------------------| 
|--0-----0------|--0-----0---------|--0------------0---------| 

   Am7                         G 
  -lowed  us         like a plague- 
|---------------------------|-----3--------------| 
|------1--------------1-----|-----0-----0--------| 
|--------------0------------|-----0-----------0--| 
|---------2--------------2--|-----0--------0-----| 
|--0---------------0--------|--------------------| 
|---------------------------|--3-----3-----------| 
  25 
   G                          C                      G 
                            No- bo-   dy  knew from  time 
|--------------------------|-----0----0--------0--------| 
|-----0-----------0--------|-----1----1--------1-----0--| 
|-----------0-----------0--|-----0----0--------0-----0--| 
|--------0-----------0-----|-----2-------------2-----0--| 
|--------------------------|--3-----------3-------------| 
|--3-----------3-----------|----------------------------| 

                              C 
  to  time   if  the plans    were  changed- 
|-----3-----------3--------|--------0--------|--------------------| 
|-----0--0--------0--------|--------1--------|--------------1-----| 
|-----0--0--------0--------|--------0--------|--------2-----------| 
|-----0--0--------0--------|--------2--------|-----2-----------2--| 
|--3--------3--------------|--3--------3--2--|--0-----------------| 
|--------------------------|-----------------|-----------0--------| 
                             30 
  Am                              Am/G     D7/F# 
                      Oh-         Oh-      Oh- 
|---------------------------|---------------------| 
|------------------1--------|---------------------| 
|------------2--------------|-------2---------2---| 
|---------2-----------2-----|-----2--------2------| 
|--0------------0-----------|--0------------------| 
|---------------------------|--------3------------| 

                            G 
                if the plans were changed- 
|------------------------|--------------------------| 
|------------------------|-----0-----------0--------| 
|------------2-----------|-----------0-----------0--| 
|---------0--------0-----|--------0-----------0-----| 
|------------------------|--------------------------| 
|--2------------2--------|--3-----------3-----------| 
                           35 

   G        Am7   G/B     Am7 
                          You can beat us with wires- 
|----------------------|-------0-----------0--| 
|--------0--1-----3----|--1----1-----------1--| 
|--------0--0-----0----|--0----0-----------0--| 
|----------------------|-------2-----------2--| 
|-----------0-----2----|--0-------------------| 
|--3-----3-------------|---------------0------| 

         G/B  Am7         G 
                          You can beat us with chains- 
|----------------------|----------------------------| 
|--------1--3-----1----|--0----0---------------0----| 
|--------0--0-----0----|--0----0---------------0----| 
|----------------------|-------0---------------0----| 
|--0--0-----2--0-------|----------------------------| 
|----------------------|--3-------------3-----------| 

            D/F#    Em   D/F# 
                               You can run out your 
|---------------------------|----------------------| 
|--------------------0------|----------------------| 
|--------0--2--------0------|--2-------------------| 
|-----------0---------------|--0----0-----------0--| 
|---------------------------|----------------------| 
|--3--3-----2-----0-----2---|--------------2-------| 

                   Em   D/F#        Em7 
  rules but you know you cant out  run the     history train 
|-------------------------------|-------0-----------0--| 
|-------------------------------|-------3-----------3--| 
|-----------2------0------2-----|--2----0-----------0--| 
|-----------0------2------0-----|--0----2-----------2--| 
|-------------------------------|----------------------| 
|--2--2---------0-----2------0--|--------------0-------| 

        Em    Am7   G/B      Am7 
                                   I've seen a glorious day- 
|-------------------------------|-------0-----------0--| 
|-----------0------1------3-----|-------1-----------1--| 
|-----------0------0------0-----|--1----0-----------0--| 
|-------------------------------|--0----2-----------2--| 
|---------------0-----2------0--|----------------------| 
|--0--0-------------------------|--------------0-------| 

            G/B Am7      Gmaj7 
   -ah-eeeeee---hold it---if you can--- 
|----------------------|-------2---------2----| 
|--------1--3-----1----|--0----0---------0----| 
|--------0--0-----0----|--0----0---------0----| 
|----------------------|-------0---------0----| 
|--0--0-----2--0-------|----------------------| 
|----------------------|--3----------3--------| 

                          D 
|-------2---------2----|-------2---------2----| 
|--0----0---------0----|-------3---------3----| 
|--0----0---------0----|-------2---------2----| 
|-------0---------0----|--0-------------------| 
|----------------------|-------------0--------| 
|--3----------3--------|----------------------| 


   D*                Em             Em7 
--------------------------------------okay stop now---- 
|-----------------|--0--0-----0--|--0--0--0-----0--0--| 
|-----7--7--8--7--|--0--0-----0--|--0--3--3-----3--3--| 
|-----7--7--9--7--|--0--0-----0--|--0--0--0-----0--0--| 
|--0--------------|--2--2-----2--|--2--2--------0-----| 
|-----------------|--2-----------|--2-----------------| 
|-----------------|--0-----0-----|--0--------0--------| 

   Am9      in triplets............. 
|-----------8-----------8-----------| 
|-----------------0-----------0-----| 
|-----5/-9-----9-----9-----9-----9--| 
|-----------------------------------| 
|--0--------------------------------| 
|-----------------------------------| 


    in triplets......................... 
|--8------------8------------8-----------| 
|--------0------------0------------0-----| 
|-----9-----9------9-----9------9-----9--| 
|----------------------------------------| 
|----------------------------------------| 
|----------------------------------------| 


   Em                 Em7*                       Em9  in   
triplets..... 
|----------------0-------------|------------------------------------| 
|----8--7--5--0--------------0-|------0-----0-----------------------| 
|-----------------------7------|--7---------------------0-----------| 
|--------------------9-----9---|---------7--------7-----------7-----| 
|------------------------------|---------------9-----9-----9-----9--| 
|-0----------------------------|------------------------------------| 


    in triplets...................... 
|--------------------------------------| 
|--------------------------------------| 
|--0-----------0-----------0-----------| 
|--------7-----------7-----------7-----| 
|-----9-----9-----9-----9-----9-----9--| 
|--------------------------------------| 



|-----------------------------------|-----------------------| 
|-----------------------------------|-----------------------| 
|-----------------------0-----------|-----------------------| 
|-----------2-----------------------|-----------------------| 
|-----1--2-----2--0-----------------|-----2------0--2-------| 
|--0-----------------5-----2--(3)---|--0-----0---------0----| 


|--0--------0--|-----------------------|--0--------0--| 
|-----3-----3--|-----------------------|-----3-----3--| 
|--------0--0--|-----------------------|--------0--0--| 
|-----------2--|-----2------0--2-------|-----------2--| 
|--------------|-----------------------|--------------| 
|--------------|--0-----0---------0----|--------------| 




   Ah--------------------------Four in the morning I woke 
|---------------|---------------|-------------------------| 
|---------------|---------------|------------------3------| 
|---------------|---------------|-------------------------| 
|-----2-----2---|-----2-----2---|--------2------------2---| 
|---------------|---------------|-------------------------| 
|--0-----0------|--0-----0------|--0------------0---------| 



   Am7                         G 
   woke up from out of my      dreams---- 
|---------------------------|--------------------------| 
|------1--------------1-----|-----0-----1--------1--0--| 
|--------------0------------|-----------------0--------| 
|---------2--------------2--|--------0-----------0-----| 
|--0---------------0--------|--------------------------| 
|---------------------------|--3-----------3-----------| 


                              C                      G 
                              Nowhere to go but      back 
|--------------------------|-----0----0--------0--------| 
|-----0-----------0--------|-----1----1--------1-----0--| 
|-----------0-----------0--|-----0----0--------0-----0--| 
|--------0-----------0-----|-----2-------------2-----0--| 
|--------------------------|--3-----------3-------------| 
|--3-----------3-----------|----------------------------| 

                        C              Am 
   to sleep   but I'm      reconciled                 Oh 
|-----3-----------3--|-----0--------|--------------------| 
|-----0--0--------0--|-----1--------|--------------1-----| 
|-----0--0--------0--|-----0--------|--------2-----------| 
|-----0--0--------0--|-----2--------|-----2-----------2--| 
|--3--------3--------|--3-----3--2--|--0-----------------| 
|--------------------|--------------|-----------0--------| 

     Am        Am/G     D7/F#     

     Oh         Oh                 I'm gonna be  

|--------------------|--------------------------| 
|--------------------|--------0-h1-----1--1-----| 
|--------2--------2--|--------------2-----------| 
|-----2--------2-----|-----0-----------------0--| 
|--0-----------------|--------------------------| 
|-----------3--------|--2--------------2--------| 

   Em7 
   up for a while....                                 Oh 
|-----------------------|--0--------0--|--------------------| 
|-----------------------|-----3-----3--|--------------1-----| 
|-----------------------|--------0--0--|--------2-----------| 
|-----2------0--2-------|-----------2--|-----2-----------2--| 
|-----------------------|--------------|--0-----------------| 
|--0-----0---------0----|--------------|-----------0--------| 


     Am        Am/G     D7/F#     

     Oh         Oh                 I'm gonna be  

|--------------------|--------------------------| 
|--------------------|--------0-h1-----1--1-----| 
|--------2--------2--|--------------2-----------| 
|-----2--------2-----|-----0-----------------0--| 
|--0-----------------|--------------------------| 
|-----------3--------|--2--------------2--------| 



   Em7 
   up for a while.... 
|-----------------------|--0--------0--| 
|-----------------------|-----3-----3--| 
|-----------------------|--------0--0--| 
|-----2------0--2-------|-----------2--| 
|-----------------------|--------------| 
|--0-----0---------0----|--------------| 


   Am9      in triplets............. 
|-----------8-----------8-----------| 
|-----------------0-----------0-----| 
|-----5/-9-----9-----9-----9-----9--| 
|-----------------------------------| 
|--0--------------------------------| 
|-----------------------------------| 


    in triplets......................... 
|--8------------8------------8-----------| 
|--------0------------0------------0-----| 
|-----9-----9------9-----9------9-----9--| 
|----------------------------------------| 
|----------------------------------------| 
|----------------------------------------| 


   Em                 Em7*                       Em9  in   
triplets..... 
|----------------0--------------|-----------------------------------| 
|----8--7--5--0--------------0--|------0-----0----------------------| 
|-----------------------7-------|--7---------------------0----------| 
|--------------------9-----9----|---------7--------7-----------7----| 
|-------------------------------|---------------9-----9-----9-----9-| 
|-0-----------------------------|-----------------------------------| 


    in triplets...................... 
|--------------------------------------| 
|--------------------------------------| 
|--0-----------0-----------0-----------| 
|--------7-----------7-----------7-----| 
|-----9-----9-----9-----9-----9-----9--| 
|--------------------------------------| 



|----------------------------------|----------0-----0-|-----------0-| 
|----------------------------------|-------3-----0----|--3-----3----| 
|----------------------0-----------|----4-------------|-----3-------| 
|----------2-----------------------|------------------|-------------| 
|----1--2-----2--0-----------------|------------------|-------------| 
|-0-----------------5-----2--(3)---|-0----------------|-------------| 


|-----0--|-----------|-----------| 
|-----3--|-----------|-----------| 
|-----4--|-----------|-----------| 
|-----4--|-----------|-----------| 
|--------|-----------|-----------| 
|--------|--0--3--(5)|--0--3--(3)| 


And that's all she wrote!!! 

Em7    022030 
Am7    003020 
G      320003 
C      032010 
Am     002210 
Am/G   3x2210 
D7/F#  200210 
G/B    x2003x 
Em     022000 
Gmaj7  2x0001 
D      x00232 
D*     xx077x 
Am9    00x908 
Em7*   0x9700 
Em9    097000 
Em9*   0x4430

Other chords and tabulatures on paul-simon.info

Chords :loves me like a rock
Google Advertisement